  0
SECTION
  2
HEADER
  9
$ACADVER
  1
AC1009
  9
$DWGCODEPAGE
  3
dos932
  9
$EXTMIN
 10
0.0
 20
0.0
 30
0.0
  9
$EXTMAX
 10
420.0
 20
297.0
 30
0.0
  9
$LIMMIN
 10
0.0
 20
0.0
  9
$LIMMAX
 10
420.0
 20
297.0
  9
$LTSCALE
 40
1.0
  9
$PDMODE
 70
     0
  0
ENDSEC
  0
SECTION
  2
TABLES
  0
TABLE
  2
VPORT
 70
     1
  0
VPORT
  2
*ACTIVE
 70
     0
 10
0.0
 20
0.0
 11
1.0
 21
1.0
 12
210.0
 22
148.5
 13
0.0
 23
0.0
 14
10.0
 24
10.0
 15
10.0
 25
10.0
 16
0.0
 26
0.0
 36
1.0
 17
0.0
 27
0.0
 37
0.0
 40
420.0
 41
1.414141414
 42
50.0
 43
0.0
 44
0.0
 50
0.0
 51
0.0
 71
     0
 72
  1000
 73
     1
 74
     3
 75
     0
 76
     0
 77
     0
 78
     0
  0
ENDTAB
  0
TABLE
  2
LTYPE
 70
     6
  0
LTYPE
  2
CONTINUOUS
 70
    64
  3
Solid line
 72
    65
 73
     0
 40
0.0
  0
LTYPE
  2
LTYPE1
 70
    64
  3
HIDDEN
 72
    65
 73
     2
 40
3.0
 49
1.8
 49
-1.2
  0
LTYPE
  2
LTYPE2
 70
    64
  3
CENTER
 72
    65
 73
     4
 40
10.0
 49
7.0
 49
-1.0
 49
1.0
 49
-1.0
  0
LTYPE
  2
LTYPE3
 70
    64
  3
CENTER
 72
    65
 73
     4
 40
15.0
 49
10.5
 49
-1.5
 49
1.5
 49
-1.5
  0
LTYPE
  2
LTYPE4
 70
    64
  3
PHANTOM
 72
    65
 73
     6
 40
15.0
 49
11.25
 49
-0.75
 49
0.75
 49
-0.75
 49
0.75
 49
-0.75
  0
LTYPE
  2
LTYPE5
 70
    64
  3
CENTER
 72
    65
 73
     4
 40
12.0
 49
8.4
 49
-1.2
 49
1.2
 49
-1.2
  0
ENDTAB
  0
TABLE
  2
LAYER
 70
   128
  0
LAYER
  2
0
 70
     0
 62
     7
  6
CONTINUOUS
  0
LAYER
  2
2
 70
     0
 62
     7
  6
CONTINUOUS
  0
LAYER
  2
3
 70
     0
 62
     7
  6
CONTINUOUS
  0
LAYER
  2
4
 70
     0
 62
     7
  6
CONTINUOUS
  0
LAYER
  2
5
 70
     0
 62
     7
  6
CONTINUOUS
  0
LAYER
  2
6
 70
     0
 62
     7
  6
CONTINUOUS
  0
LAYER
  2
7
 70
     0
 62
     7
  6
CONTINUOUS
  0
LAYER
  2
8
 70
     0
 62
     7
  6
CONTINUOUS
  0
LAYER
  2
9
 70
     0
 62
     7
  6
CONTINUOUS
  0
LAYER
  2
10
 70
     0
 62
     7
  6
CONTINUOUS
  0
LAYER
  2
11
 70
     0
 62
     7
  6
CONTINUOUS
  0
LAYER
  2
12
 70
     0
 62
     7
  6
CONTINUOUS
  0
LAYER
  2
13
 70
     0
 62
     7
  6
CONTINUOUS
  0
LAYER
  2
14
 70
     0
 62
     7
  6
CONTINUOUS
  0
LAYER
  2
15
 70
     0
 62
     7
  6
CONTINUOUS
  0
LAYER
  2
16
 70
     0
 62
     7
  6
CONTINUOUS
  0
LAYER
  2
17
 70
     0
 62
     7
  6
CONTINUOUS
  0
LAYER
  2
18
 70
     0
 62
     7
  6
CONTINUOUS
  0
LAYER
  2
19
 70
     0
 62
     7
  6
CONTINUOUS
  0
LAYER
  2
20
 70
     0
 62
     7
  6
CONTINUOUS
  0
LAYER
  2
21
 70
     0
 62
     7
  6
CONTINUOUS
  0
LAYER
  2
22
 70
     0
 62
     7
  6
CONTINUOUS
  0
LAYER
  2
23
 70
     0
 62
     7
  6
CONTINUOUS
  0
LAYER
  2
24
 70
     0
 62
     7
  6
CONTINUOUS
  0
LAYER
  2
25
 70
     0
 62
     7
  6
CONTINUOUS
  0
LAYER
  2
26
 70
     0
 62
     7
  6
CONTINUOUS
  0
LAYER
  2
27
 70
     0
 62
     7
  6
CONTINUOUS
  0
LAYER
  2
28
 70
     0
 62
     7
  6
CONTINUOUS
  0
LAYER
  2
29
 70
     0
 62
     7
  6
CONTINUOUS
  0
LAYER
  2
30
 70
     0
 62
     7
  6
CONTINUOUS
  0
LAYER
  2
31
 70
     0
 62
     7
  6
CONTINUOUS
  0
LAYER
  2
32
 70
     0
 62
     7
  6
CONTINUOUS
  0
LAYER
  2
33
 70
     0
 62
     7
  6
CONTINUOUS
  0
LAYER
  2
34
 70
     0
 62
     7
  6
CONTINUOUS
  0
LAYER
  2
35
 70
     0
 62
     7
  6
CONTINUOUS
  0
LAYER
  2
36
 70
     0
 62
     7
  6
CONTINUOUS
  0
LAYER
  2
37
 70
     0
 62
     7
  6
CONTINUOUS
  0
LAYER
  2
38
 70
     0
 62
     7
  6
CONTINUOUS
  0
LAYER
  2
39
 70
     0
 62
     7
  6
CONTINUOUS
  0
LAYER
  2
40
 70
     0
 62
     7
  6
CONTINUOUS
  0
LAYER
  2
41
 70
     0
 62
     7
  6
CONTINUOUS
  0
LAYER
  2
42
 70
     0
 62
     7
  6
CONTINUOUS
  0
LAYER
  2
43
 70
     0
 62
     7
  6
CONTINUOUS
  0
LAYER
  2
44
 70
     0
 62
     7
  6
CONTINUOUS
  0
LAYER
  2
45
 70
     0
 62
     7
  6
CONTINUOUS
  0
LAYER
  2
46
 70
     0
 62
     7
  6
CONTINUOUS
  0
LAYER
  2
47
 70
     0
 62
     7
  6
CONTINUOUS
  0
LAYER
  2
48
 70
     0
 62
     7
  6
CONTINUOUS
  0
LAYER
  2
49
 70
     0
 62
     7
  6
CONTINUOUS
  0
LAYER
  2
50
 70
     0
 62
     7
  6
CONTINUOUS
  0
LAYER
  2
51
 70
     0
 62
     7
  6
CONTINUOUS
  0
LAYER
  2
52
 70
     0
 62
     7
  6
CONTINUOUS
  0
LAYER
  2
53
 70
     0
 62
     7
  6
CONTINUOUS
  0
LAYER
  2
54
 70
     0
 62
     7
  6
CONTINUOUS
  0
LAYER
  2
55
 70
     0
 62
     7
  6
CONTINUOUS
  0
LAYER
  2
56
 70
     0
 62
     7
  6
CONTINUOUS
  0
LAYER
  2
57
 70
     0
 62
     7
  6
CONTINUOUS
  0
LAYER
  2
58
 70
     0
 62
     7
  6
CONTINUOUS
  0
LAYER
  2
59
 70
     0
 62
     7
  6
CONTINUOUS
  0
LAYER
  2
60
 70
     0
 62
     7
  6
CONTINUOUS
  0
LAYER
  2
61
 70
     0
 62
     7
  6
CONTINUOUS
  0
LAYER
  2
62
 70
     0
 62
     7
  6
CONTINUOUS
  0
LAYER
  2
63
 70
     0
 62
     7
  6
CONTINUOUS
  0
LAYER
  2
64
 70
     0
 62
     7
  6
CONTINUOUS
  0
LAYER
  2
65
 70
     0
 62
     7
  6
CONTINUOUS
  0
LAYER
  2
66
 70
     0
 62
     7
  6
CONTINUOUS
  0
LAYER
  2
67
 70
     0
 62
     7
  6
CONTINUOUS
  0
LAYER
  2
68
 70
     0
 62
     7
  6
CONTINUOUS
  0
LAYER
  2
69
 70
     0
 62
     7
  6
CONTINUOUS
  0
LAYER
  2
70
 70
     0
 62
     7
  6
CONTINUOUS
  0
LAYER
  2
71
 70
     0
 62
     7
  6
CONTINUOUS
  0
LAYER
  2
72
 70
     0
 62
     7
  6
CONTINUOUS
  0
LAYER
  2
73
 70
     0
 62
     7
  6
CONTINUOUS
  0
LAYER
  2
74
 70
     0
 62
     7
  6
CONTINUOUS
  0
LAYER
  2
75
 70
     0
 62
     7
  6
CONTINUOUS
  0
LAYER
  2
76
 70
     0
 62
     7
  6
CONTINUOUS
  0
LAYER
  2
77
 70
     0
 62
     7
  6
CONTINUOUS
  0
LAYER
  2
78
 70
     0
 62
     7
  6
CONTINUOUS
  0
LAYER
  2
79
 70
     0
 62
     7
  6
CONTINUOUS
  0
LAYER
  2
80
 70
     0
 62
     7
  6
CONTINUOUS
  0
LAYER
  2
81
 70
     0
 62
     7
  6
CONTINUOUS
  0
LAYER
  2
82
 70
     0
 62
     7
  6
CONTINUOUS
  0
LAYER
  2
83
 70
     0
 62
     7
  6
CONTINUOUS
  0
LAYER
  2
84
 70
     0
 62
     7
  6
CONTINUOUS
  0
LAYER
  2
85
 70
     0
 62
     7
  6
CONTINUOUS
  0
LAYER
  2
86
 70
     0
 62
     7
  6
CONTINUOUS
  0
LAYER
  2
87
 70
     0
 62
     7
  6
CONTINUOUS
  0
LAYER
  2
88
 70
     0
 62
     7
  6
CONTINUOUS
  0
LAYER
  2
89
 70
     0
 62
     7
  6
CONTINUOUS
  0
LAYER
  2
90
 70
     0
 62
     7
  6
CONTINUOUS
  0
LAYER
  2
91
 70
     0
 62
     7
  6
CONTINUOUS
  0
LAYER
  2
92
 70
     0
 62
     7
  6
CONTINUOUS
  0
LAYER
  2
93
 70
     0
 62
     7
  6
CONTINUOUS
  0
LAYER
  2
94
 70
     0
 62
     7
  6
CONTINUOUS
  0
LAYER
  2
95
 70
     0
 62
     7
  6
CONTINUOUS
  0
LAYER
  2
96
 70
     0
 62
     7
  6
CONTINUOUS
  0
LAYER
  2
97
 70
     0
 62
     7
  6
CONTINUOUS
  0
LAYER
  2
98
 70
     0
 62
     7
  6
CONTINUOUS
  0
LAYER
  2
99
 70
     0
 62
     7
  6
CONTINUOUS
  0
LAYER
  2
100
 70
     0
 62
     7
  6
CONTINUOUS
  0
LAYER
  2
101
 70
     0
 62
     7
  6
CONTINUOUS
  0
LAYER
  2
102
 70
     0
 62
     7
  6
CONTINUOUS
  0
LAYER
  2
103
 70
     0
 62
     7
  6
CONTINUOUS
  0
LAYER
  2
104
 70
     0
 62
     7
  6
CONTINUOUS
  0
LAYER
  2
105
 70
     0
 62
     7
  6
CONTINUOUS
  0
LAYER
  2
106
 70
     0
 62
     7
  6
CONTINUOUS
  0
LAYER
  2
107
 70
     0
 62
     7
  6
CONTINUOUS
  0
LAYER
  2
108
 70
     0
 62
     7
  6
CONTINUOUS
  0
LAYER
  2
109
 70
     0
 62
     7
  6
CONTINUOUS
  0
LAYER
  2
110
 70
     0
 62
     7
  6
CONTINUOUS
  0
LAYER
  2
111
 70
     0
 62
     7
  6
CONTINUOUS
  0
LAYER
  2
112
 70
     0
 62
     7
  6
CONTINUOUS
  0
LAYER
  2
113
 70
     0
 62
     7
  6
CONTINUOUS
  0
LAYER
  2
114
 70
     0
 62
     7
  6
CONTINUOUS
  0
LAYER
  2
115
 70
     0
 62
     7
  6
CONTINUOUS
  0
LAYER
  2
116
 70
     0
 62
     7
  6
CONTINUOUS
  0
LAYER
  2
117
 70
     0
 62
     7
  6
CONTINUOUS
  0
LAYER
  2
118
 70
     0
 62
     7
  6
CONTINUOUS
  0
LAYER
  2
119
 70
     0
 62
     7
  6
CONTINUOUS
  0
LAYER
  2
120
 70
     0
 62
     7
  6
CONTINUOUS
  0
LAYER
  2
121
 70
     0
 62
     7
  6
CONTINUOUS
  0
LAYER
  2
122
 70
     0
 62
     7
  6
CONTINUOUS
  0
LAYER
  2
123
 70
     0
 62
     7
  6
CONTINUOUS
  0
LAYER
  2
124
 70
     0
 62
     7
  6
CONTINUOUS
  0
LAYER
  2
125
 70
     0
 62
     7
  6
CONTINUOUS
  0
LAYER
  2
126
 70
     0
 62
     7
  6
CONTINUOUS
  0
LAYER
  2
127
 70
     0
 62
     7
  6
CONTINUOUS
  0
LAYER
  2
128
 70
     0
 62
     7
  6
CONTINUOUS
  0
ENDTAB
  0
TABLE
  2
STYLE
 70
    17
  0
STYLE
  2
STANDARD
 70
     0
 40
0.0
 41
1.0
 50
0.0
 71
     0
 42
0.2
  3
txt.shx
  4
extfont.shx
  0
STYLE
  2
KANJI0
 70
     0
 40
1.8
 41
0.666666667
 50
0.0
 71
     0
 42
1.8
  3
txt.shx
  4
extfont.shx
  0
STYLE
  2
KANJI1
 70
     0
 40
1.8
 41
0.833333333
 50
0.0
 71
     0
 42
1.8
  3
txt.shx
  4
extfont.shx
  0
STYLE
  2
KANJI2
 70
     0
 40
2.0
 41
0.7
 50
0.0
 71
     0
 42
2.0
  3
txt.shx
  4
extfont.shx
  0
STYLE
  2
KANJI3
 70
     0
 40
3.0
 41
0.666666667
 50
0.0
 71
     0
 42
3.0
  3
txt.shx
  4
extfont.shx
  0
STYLE
  2
KANJI4
 70
     0
 40
1.75
 41
0.857142857
 50
0.0
 71
     0
 42
1.75
  3
txt.shx
  4
extfont.shx
  0
STYLE
  2
KANJI5
 70
     0
 40
1.5
 41
0.666666667
 50
0.0
 71
     0
 42
1.5
  3
txt.shx
  4
extfont.shx
  0
STYLE
  2
KANJI6
 70
     0
 40
1.5
 41
0.666666667
 50
0.0
 71
     0
 42
1.5
  3
txt.shx
  4
extfont.shx
  0
STYLE
  2
KANJI7
 70
     0
 40
1.5
 41
0.4
 50
0.0
 71
     0
 42
1.5
  3
txt.shx
  4
extfont.shx
  0
STYLE
  2
KANJI8
 70
     0
 40
1.75
 41
0.685714286
 50
0.0
 71
     0
 42
1.75
  3
txt.shx
  4
extfont.shx
  0
STYLE
  2
KANJI9
 70
     0
 40
1.75
 41
0.485714286
 50
0.0
 71
     0
 42
1.75
  3
txt.shx
  4
extfont.shx
  0
STYLE
  2
KANJI10
 70
     0
 40
1.75
 41
0.714285714
 50
0.0
 71
     0
 42
1.75
  3
txt.shx
  4
extfont.shx
  0
STYLE
  2
KANJI11
 70
     0
 40
1.5
 41
1.0
 50
0.0
 71
     0
 42
1.5
  3
txt.shx
  4
extfont.shx
  0
STYLE
  2
KANJI12
 70
     0
 40
2.0
 41
1.0
 50
15.0
 71
     0
 42
2.0
  3
txt.shx
  4
extfont.shx
  0
STYLE
  2
KANJI13
 70
     0
 40
3.0
 41
0.933333333
 50
15.0
 71
     0
 42
3.0
  3
txt.shx
  4
extfont.shx
  0
STYLE
  2
KANJI14
 70
     0
 40
3.0
 41
0.9
 50
0.0
 71
     0
 42
3.0
  3
txt.shx
  4
extfont.shx
  0
STYLE
  2
KANJI15
 70
     0
 40
2.0
 41
1.0
 50
15.0
 71
     0
 42
2.0
  3
txt.shx
  4
extfont.shx
  0
ENDTAB
  0
TABLE
  2
VIEW
 70
     0
  0
ENDTAB
  0
ENDSEC
  0
SECTION
  2
BLOCKS
  0
ENDSEC
  0
SECTION
  2
ENTITIES
  0
POINT
  8
0
  6
CONTINUOUS
 62
     1
 10
206.1
 20
-20.15
 30
0.0
  0
LINE
  8
0
  6
LTYPE1
 62
     1
 10
328.2
 20
210.100000986
 30
0.0
 11
318.2
 21
210.100000986
 31
0.0
  0
LINE
  8
0
  6
LTYPE1
 62
     1
 10
329.2
 20
210.100000986
 30
0.0
 11
332.2
 21
210.100000986
 31
0.0
  0
LINE
  8
0
  6
LTYPE1
 62
     1
 10
329.2
 20
209.100000986
 30
0.0
 11
329.2
 21
210.100000986
 31
0.0
  0
LINE
  8
0
  6
LTYPE1
 62
     1
 10
329.2
 20
209.100000986
 30
0.0
 11
328.2
 21
210.100000986
 31
0.0
  0
LINE
  8
0
  6
LTYPE1
 62
     1
 10
329.2
 20
165.100000986
 30
0.0
 11
332.2
 21
165.100000986
 31
0.0
  0
LINE
  8
0
  6
LTYPE1
 62
     1
 10
329.2
 20
166.100000986
 30
0.0
 11
328.2
 21
165.100000986
 31
0.0
  0
LINE
  8
0
  6
LTYPE1
 62
     1
 10
329.2
 20
166.100000986
 30
0.0
 11
329.2
 21
165.100000986
 31
0.0
  0
LINE
  8
0
  6
LTYPE1
 62
     1
 10
328.2
 20
165.100000986
 30
0.0
 11
318.2
 21
165.100000986
 31
0.0
  0
LINE
  8
0
  6
CONTINUOUS
 62
     3
 10
332.2
 20
212.100000986
 30
0.0
 11
318.2
 21
212.100000986
 31
0.0
  0
LINE
  8
0
  6
CONTINUOUS
 62
     3
 10
314.2
 20
215.100000986
 30
0.0
 11
314.2
 21
213.100000986
 31
0.0
  0
LINE
  8
0
  6
CONTINUOUS
 62
     3
 10
322.211834027
 20
215.100000986
 30
0.0
 11
314.2
 21
215.100000986
 31
0.0
  0
LINE
  8
0
  6
CONTINUOUS
 62
     3
 10
314.2
 20
213.100000986
 30
0.0
 11
322.211834027
 21
213.100000986
 31
0.0
  0
LINE
  8
0
  6
CONTINUOUS
 62
     3
 10
314.2
 20
160.100000986
 30
0.0
 11
314.2
 21
162.100000986
 31
0.0
  0
LINE
  8
0
  6
CONTINUOUS
 62
     3
 10
322.211834027
 20
160.100000986
 30
0.0
 11
314.2
 21
160.100000986
 31
0.0
  0
LINE
  8
0
  6
CONTINUOUS
 62
     3
 10
314.2
 20
162.100000986
 30
0.0
 11
322.211834027
 21
162.100000986
 31
0.0
  0
LINE
  8
0
  6
CONTINUOUS
 62
     3
 10
332.2
 20
163.100000986
 30
0.0
 11
318.2
 21
163.100000986
 31
0.0
  0
LINE
  8
0
  6
CONTINUOUS
 62
     3
 10
332.2
 20
163.100000986
 30
0.0
 11
332.2
 21
212.100000986
 31
0.0
  0
LINE
  8
0
  6
CONTINUOUS
 62
     3
 10
314.2
 20
160.100000986
 30
0.0
 11
314.2
 21
162.100000986
 31
0.0
  0
LINE
  8
0
  6
CONTINUOUS
 62
     3
 10
322.211834027
 20
160.100000986
 30
0.0
 11
314.2
 21
160.100000986
 31
0.0
  0
LINE
  8
0
  6
CONTINUOUS
 62
     3
 10
314.2
 20
162.100000986
 30
0.0
 11
322.211834027
 21
162.100000986
 31
0.0
  0
LINE
  8
0
  6
CONTINUOUS
 62
     3
 10
322.211834027
 20
163.100000986
 30
0.0
 11
322.211834027
 21
158.600000986
 31
0.0
  0
LINE
  8
0
  6
CONTINUOUS
 62
     3
 10
322.211834027
 20
158.600000986
 30
0.0
 11
318.211834027
 21
158.600000986
 31
0.0
  0
LINE
  8
0
  6
CONTINUOUS
 62
     3
 10
318.2
 20
160.100000986
 30
0.0
 11
318.2
 21
158.600000986
 31
0.0
  0
LINE
  8
0
  6
CONTINUOUS
 62
     3
 10
318.2
 20
213.100000986
 30
0.0
 11
318.2
 21
162.100000986
 31
0.0
  0
LINE
  8
0
  6
LTYPE1
 62
     1
 10
332.2
 20
210.900000986
 30
0.0
 11
330.2
 21
210.900000986
 31
0.0
  0
LINE
  8
0
  6
LTYPE1
 62
     1
 10
330.2
 20
210.900000986
 30
0.0
 11
330.2
 21
210.100000986
 31
0.0
  0
LINE
  8
0
  6
LTYPE1
 62
     1
 10
332.2
 20
164.300000986
 30
0.0
 11
330.2
 21
164.300000986
 31
0.0
  0
LINE
  8
0
  6
LTYPE1
 62
     1
 10
330.2
 20
164.300000986
 30
0.0
 11
330.2
 21
165.100000986
 31
0.0
  0
LINE
  8
0
  6
CONTINUOUS
 62
     3
 10
322.211834027
 20
212.100000986
 30
0.0
 11
322.211834027
 21
217.600000986
 31
0.0
  0
LINE
  8
0
  6
CONTINUOUS
 62
     3
 10
322.211834027
 20
217.600000986
 30
0.0
 11
318.211834027
 21
217.600000986
 31
0.0
  0
LINE
  8
0
  6
CONTINUOUS
 62
     3
 10
318.2
 20
217.600000986
 30
0.0
 11
318.2
 21
215.100000986
 31
0.0
  0
LINE
  8
0
  6
CONTINUOUS
 62
     3
 10
114.2
 20
163.6
 30
0.0
 11
160.2
 21
163.6
 31
0.0
  0
ARC
  8
0
  6
CONTINUOUS
 62
     3
 10
160.2
 20
164.6
 30
0.0
 40
1.0
 50
270.0
 51
0.0
  0
LINE
  8
0
  6
CONTINUOUS
 62
     3
 10
161.2
 20
164.6
 30
0.0
 11
161.2
 21
210.6
 31
0.0
  0
ARC
  8
0
  6
CONTINUOUS
 62
     3
 10
160.2
 20
210.6
 30
0.0
 40
1.0
 50
0.0
 51
90.0
  0
LINE
  8
0
  6
CONTINUOUS
 62
     3
 10
160.2
 20
211.6
 30
0.0
 11
114.2
 21
211.6
 31
0.0
  0
ARC
  8
0
  6
CONTINUOUS
 62
     3
 10
114.2
 20
210.6
 30
0.0
 40
1.0
 50
90.0
 51
180.0
  0
LINE
  8
0
  6
CONTINUOUS
 62
     3
 10
113.2
 20
210.6
 30
0.0
 11
113.2
 21
164.6
 31
0.0
  0
ARC
  8
0
  6
CONTINUOUS
 62
     3
 10
114.2
 20
164.6
 30
0.0
 40
1.0
 50
180.0
 51
270.0
  0
LINE
  8
0
  6
CONTINUOUS
 62
     1
 10
114.6
 20
165.0
 30
0.0
 11
159.8
 21
165.0
 31
0.0
  0
LINE
  8
0
  6
CONTINUOUS
 62
     1
 10
114.6
 20
210.2
 30
0.0
 11
114.6
 21
165.0
 31
0.0
  0
LINE
  8
0
  6
CONTINUOUS
 62
     1
 10
159.8
 20
210.2
 30
0.0
 11
114.6
 21
210.2
 31
0.0
  0
LINE
  8
0
  6
CONTINUOUS
 62
     1
 10
159.8
 20
165.0
 30
0.0
 11
159.8
 21
210.2
 31
0.0
  0
LINE
  8
0
  6
CONTINUOUS
 62
     1
 10
154.7
 20
206.1
 30
0.0
 11
119.7
 21
206.1
 31
0.0
  0
CIRCLE
  8
0
  6
CONTINUOUS
 62
     1
 10
119.6
 20
182.1
 30
0.0
 40
1.1
  0
CIRCLE
  8
0
  6
CONTINUOUS
 62
     1
 10
127.6
 20
182.1
 30
0.0
 40
1.1
  0
CIRCLE
  8
0
  6
CONTINUOUS
 62
     1
 10
135.6
 20
182.1
 30
0.0
 40
1.1
  0
CIRCLE
  8
0
  6
CONTINUOUS
 62
     1
 10
143.6
 20
182.1
 30
0.0
 40
1.1
  0
CIRCLE
  8
0
  6
CONTINUOUS
 62
     1
 10
151.6
 20
182.1
 30
0.0
 40
1.1
  0
CIRCLE
  8
0
  6
CONTINUOUS
 62
     1
 10
119.6
 20
186.1
 30
0.0
 40
1.1
  0
CIRCLE
  8
0
  6
CONTINUOUS
 62
     1
 10
119.6
 20
190.1
 30
0.0
 40
1.1
  0
LINE
  8
0
  6
CONTINUOUS
 62
     1
 10
122.1003794
 20
204.948953747
 30
0.0
 11
122.799639696
 21
204.1
 31
0.0
  0
LINE
  8
0
  6
CONTINUOUS
 62
     1
 10
121.869909235
 20
204.756895276
 30
0.0
 11
122.571041988
 21
203.905668227
 31
0.0
  0
LINE
  8
0
  6
CONTINUOUS
 62
     1
 10
121.695510244
 20
204.611562784
 30
0.0
 11
121.869909235
 21
204.756895276
 31
0.0
  0
LINE
  8
0
  6
CONTINUOUS
 62
     1
 10
122.1003794
 20
204.948953747
 30
0.0
 11
122.281634904
 21
205.1
 31
0.0
  0
LINE
  8
0
  6
CONTINUOUS
 62
     1
 10
122.799639696
 20
204.1
 30
0.0
 11
125.973717193
 21
204.1
 31
0.0
  0
LINE
  8
0
  6
CONTINUOUS
 62
     1
 10
122.281634904
 20
205.1
 30
0.0
 11
126.681634904
 21
205.1
 31
0.0
  0
LINE
  8
0
  6
CONTINUOUS
 62
     1
 10
126.91817269
 20
204.902885178
 30
0.0
 11
125.973717193
 21
204.1
 31
0.0
  0
LINE
  8
0
  6
CONTINUOUS
 62
     1
 10
127.152070532
 20
204.70797031
 30
0.0
 11
126.164472229
 21
203.86840927
 31
0.0
  0
LINE
  8
0
  6
CONTINUOUS
 62
     1
 10
127.291954989
 20
204.591399929
 30
0.0
 11
127.152070532
 21
204.70797031
 31
0.0
  0
LINE
  8
0
  6
CONTINUOUS
 62
     1
 10
126.91817269
 20
204.902885178
 30
0.0
 11
126.681634904
 21
205.1
 31
0.0
  0
LINE
  8
0
  6
CONTINUOUS
 62
     1
 10
122.571041988
 20
203.905668227
 30
0.0
 11
122.052448956
 21
200.96458099
 31
0.0
  0
LINE
  8
0
  6
CONTINUOUS
 62
     1
 10
121.612132034
 20
200.1
 30
0.0
 11
122.112132034
 21
199.6
 31
0.0
  0
LINE
  8
0
  6
CONTINUOUS
 62
     1
 10
122.112132034
 20
200.6
 30
0.0
 11
121.612132034
 21
200.1
 31
0.0
  0
LINE
  8
0
  6
CONTINUOUS
 62
     1
 10
122.052448956
 20
200.96458099
 30
0.0
 11
121.4
 21
200.312132034
 31
0.0
  0
LINE
  8
0
  6
CONTINUOUS
 62
     1
 10
121.4
 20
199.887867966
 30
0.0
 11
121.793254092
 21
199.494613873
 31
0.0
  0
LINE
  8
0
  6
CONTINUOUS
 62
     1
 10
121.695510244
 20
204.611562784
 30
0.0
 11
121.006745908
 21
200.705386127
 31
0.0
  0
LINE
  8
0
  6
CONTINUOUS
 62
     1
 10
121.006745908
 20
200.705386127
 30
0.0
 11
121.4
 21
200.312132034
 31
0.0
  0
LINE
  8
0
  6
CONTINUOUS
 62
     1
 10
121.4
 20
199.887867966
 30
0.0
 11
120.747551044
 21
199.23541901
 31
0.0
  0
LINE
  8
0
  6
CONTINUOUS
 62
     1
 10
120.747551044
 20
199.23541901
 30
0.0
 11
120.108045011
 21
195.608600071
 31
0.0
  0
LINE
  8
0
  6
CONTINUOUS
 62
     1
 10
120.108045011
 20
195.608600071
 30
0.0
 11
120.247929468
 21
195.49202969
 31
0.0
  0
LINE
  8
0
  6
CONTINUOUS
 62
     1
 10
120.48182731
 20
195.297114822
 30
0.0
 11
120.718365096
 21
195.1
 31
0.0
  0
LINE
  8
0
  6
CONTINUOUS
 62
     1
 10
121.793254092
 20
199.494613873
 30
0.0
 11
121.235527771
 21
196.33159073
 31
0.0
  0
LINE
  8
0
  6
CONTINUOUS
 62
     1
 10
120.247929468
 20
195.49202969
 30
0.0
 11
121.235527771
 21
196.33159073
 31
0.0
  0
LINE
  8
0
  6
CONTINUOUS
 62
     1
 10
120.48182731
 20
195.297114822
 30
0.0
 11
121.426282807
 21
196.1
 31
0.0
  0
LINE
  8
0
  6
CONTINUOUS
 62
     1
 10
121.426282807
 20
196.1
 30
0.0
 11
124.600360304
 21
196.1
 31
0.0
  0
LINE
  8
0
  6
CONTINUOUS
 62
     1
 10
125.2996206
 20
195.251046253
 30
0.0
 11
124.600360304
 21
196.1
 31
0.0
  0
LINE
  8
0
  6
CONTINUOUS
 62
     1
 10
125.530090765
 20
195.443104724
 30
0.0
 11
124.828958012
 21
196.294331773
 31
0.0
  0
LINE
  8
0
  6
CONTINUOUS
 62
     1
 10
125.704489756
 20
195.588437216
 30
0.0
 11
125.530090765
 21
195.443104724
 31
0.0
  0
LINE
  8
0
  6
CONTINUOUS
 62
     1
 10
120.718365096
 20
195.1
 30
0.0
 11
125.118365096
 21
195.1
 31
0.0
  0
LINE
  8
0
  6
CONTINUOUS
 62
     1
 10
125.2996206
 20
195.251046253
 30
0.0
 11
125.118365096
 21
195.1
 31
0.0
  0
LINE
  8
0
  6
CONTINUOUS
 62
     1
 10
125.787867966
 20
200.1
 30
0.0
 11
125.287867966
 21
199.6
 31
0.0
  0
LINE
  8
0
  6
CONTINUOUS
 62
     1
 10
122.112132034
 20
199.6
 30
0.0
 11
125.287867966
 21
199.6
 31
0.0
  0
LINE
  8
0
  6
CONTINUOUS
 62
     1
 10
126.164472229
 20
203.86840927
 30
0.0
 11
125.606745908
 21
200.705386127
 31
0.0
  0
LINE
  8
0
  6
CONTINUOUS
 62
     1
 10
125.606745908
 20
200.705386127
 30
0.0
 11
126.0
 21
200.312132034
 31
0.0
  0
LINE
  8
0
  6
CONTINUOUS
 62
     1
 10
127.291954989
 20
204.591399929
 30
0.0
 11
126.652448956
 21
200.96458099
 31
0.0
  0
LINE
  8
0
  6
CONTINUOUS
 62
     1
 10
126.652448956
 20
200.96458099
 30
0.0
 11
126.0
 21
200.312132034
 31
0.0
  0
LINE
  8
0
  6
CONTINUOUS
 62
     1
 10
126.0
 20
199.887867966
 30
0.0
 11
126.393254092
 21
199.494613873
 31
0.0
  0
LINE
  8
0
  6
CONTINUOUS
 62
     1
 10
126.393254092
 20
199.494613873
 30
0.0
 11
125.704489756
 21
195.588437216
 31
0.0
  0
LINE
  8
0
  6
CONTINUOUS
 62
     1
 10
126.0
 20
199.887867966
 30
0.0
 11
125.347551044
 21
199.23541901
 31
0.0
  0
LINE
  8
0
  6
CONTINUOUS
 62
     1
 10
125.347551044
 20
199.23541901
 30
0.0
 11
124.828958012
 21
196.294331773
 31
0.0
  0
LINE
  8
0
  6
CONTINUOUS
 62
     1
 10
122.112132034
 20
200.6
 30
0.0
 11
125.287867966
 21
200.6
 31
0.0
  0
LINE
  8
0
  6
CONTINUOUS
 62
     1
 10
125.287867966
 20
200.6
 30
0.0
 11
125.787867966
 21
200.1
 31
0.0
  0
LINE
  8
0
  6
CONTINUOUS
 62
     1
 10
131.1003794
 20
204.948953747
 30
0.0
 11
131.799639696
 21
204.1
 31
0.0
  0
LINE
  8
0
  6
CONTINUOUS
 62
     1
 10
130.869909235
 20
204.756895276
 30
0.0
 11
131.571041988
 21
203.905668227
 31
0.0
  0
LINE
  8
0
  6
CONTINUOUS
 62
     1
 10
130.695510244
 20
204.611562784
 30
0.0
 11
130.869909235
 21
204.756895276
 31
0.0
  0
LINE
  8
0
  6
CONTINUOUS
 62
     1
 10
131.1003794
 20
204.948953747
 30
0.0
 11
131.281634904
 21
205.1
 31
0.0
  0
LINE
  8
0
  6
CONTINUOUS
 62
     1
 10
131.799639696
 20
204.1
 30
0.0
 11
134.973717193
 21
204.1
 31
0.0
  0
LINE
  8
0
  6
CONTINUOUS
 62
     1
 10
131.281634904
 20
205.1
 30
0.0
 11
135.681634904
 21
205.1
 31
0.0
  0
LINE
  8
0
  6
CONTINUOUS
 62
     1
 10
135.91817269
 20
204.902885178
 30
0.0
 11
134.973717193
 21
204.1
 31
0.0
  0
LINE
  8
0
  6
CONTINUOUS
 62
     1
 10
136.152070532
 20
204.70797031
 30
0.0
 11
135.164472229
 21
203.86840927
 31
0.0
  0
LINE
  8
0
  6
CONTINUOUS
 62
     1
 10
136.291954989
 20
204.591399929
 30
0.0
 11
136.152070532
 21
204.70797031
 31
0.0
  0
LINE
  8
0
  6
CONTINUOUS
 62
     1
 10
135.91817269
 20
204.902885178
 30
0.0
 11
135.681634904
 21
205.1
 31
0.0
  0
LINE
  8
0
  6
CONTINUOUS
 62
     1
 10
131.571041988
 20
203.905668227
 30
0.0
 11
131.052448956
 21
200.96458099
 31
0.0
  0
LINE
  8
0
  6
CONTINUOUS
 62
     1
 10
130.612132034
 20
200.1
 30
0.0
 11
131.112132034
 21
199.6
 31
0.0
  0
LINE
  8
0
  6
CONTINUOUS
 62
     1
 10
131.112132034
 20
200.6
 30
0.0
 11
130.612132034
 21
200.1
 31
0.0
  0
LINE
  8
0
  6
CONTINUOUS
 62
     1
 10
131.052448956
 20
200.96458099
 30
0.0
 11
130.4
 21
200.312132034
 31
0.0
  0
LINE
  8
0
  6
CONTINUOUS
 62
     1
 10
130.4
 20
199.887867966
 30
0.0
 11
130.793254092
 21
199.494613873
 31
0.0
  0
LINE
  8
0
  6
CONTINUOUS
 62
     1
 10
130.695510244
 20
204.611562784
 30
0.0
 11
130.006745908
 21
200.705386127
 31
0.0
  0
LINE
  8
0
  6
CONTINUOUS
 62
     1
 10
130.006745908
 20
200.705386127
 30
0.0
 11
130.4
 21
200.312132034
 31
0.0
  0
LINE
  8
0
  6
CONTINUOUS
 62
     1
 10
130.4
 20
199.887867966
 30
0.0
 11
129.747551044
 21
199.23541901
 31
0.0
  0
LINE
  8
0
  6
CONTINUOUS
 62
     1
 10
129.747551044
 20
199.23541901
 30
0.0
 11
129.108045011
 21
195.608600071
 31
0.0
  0
LINE
  8
0
  6
CONTINUOUS
 62
     1
 10
129.108045011
 20
195.608600071
 30
0.0
 11
129.247929468
 21
195.49202969
 31
0.0
  0
LINE
  8
0
  6
CONTINUOUS
 62
     1
 10
129.48182731
 20
195.297114822
 30
0.0
 11
129.718365096
 21
195.1
 31
0.0
  0
LINE
  8
0
  6
CONTINUOUS
 62
     1
 10
130.793254092
 20
199.494613873
 30
0.0
 11
130.235527771
 21
196.33159073
 31
0.0
  0
LINE
  8
0
  6
CONTINUOUS
 62
     1
 10
129.247929468
 20
195.49202969
 30
0.0
 11
130.235527771
 21
196.33159073
 31
0.0
  0
LINE
  8
0
  6
CONTINUOUS
 62
     1
 10
129.48182731
 20
195.297114822
 30
0.0
 11
130.426282807
 21
196.1
 31
0.0
  0
LINE
  8
0
  6
CONTINUOUS
 62
     1
 10
130.426282807
 20
196.1
 30
0.0
 11
133.600360304
 21
196.1
 31
0.0
  0
LINE
  8
0
  6
CONTINUOUS
 62
     1
 10
134.2996206
 20
195.251046253
 30
0.0
 11
133.600360304
 21
196.1
 31
0.0
  0
LINE
  8
0
  6
CONTINUOUS
 62
     1
 10
134.530090765
 20
195.443104724
 30
0.0
 11
133.828958012
 21
196.294331773
 31
0.0
  0
LINE
  8
0
  6
CONTINUOUS
 62
     1
 10
134.704489756
 20
195.588437216
 30
0.0
 11
134.530090765
 21
195.443104724
 31
0.0
  0
LINE
  8
0
  6
CONTINUOUS
 62
     1
 10
129.718365096
 20
195.1
 30
0.0
 11
134.118365096
 21
195.1
 31
0.0
  0
LINE
  8
0
  6
CONTINUOUS
 62
     1
 10
134.2996206
 20
195.251046253
 30
0.0
 11
134.118365096
 21
195.1
 31
0.0
  0
LINE
  8
0
  6
CONTINUOUS
 62
     1
 10
134.787867966
 20
200.1
 30
0.0
 11
134.287867966
 21
199.6
 31
0.0
  0
LINE
  8
0
  6
CONTINUOUS
 62
     1
 10
131.112132034
 20
199.6
 30
0.0
 11
134.287867966
 21
199.6
 31
0.0
  0
LINE
  8
0
  6
CONTINUOUS
 62
     1
 10
135.164472229
 20
203.86840927
 30
0.0
 11
134.606745908
 21
200.705386127
 31
0.0
  0
LINE
  8
0
  6
CONTINUOUS
 62
     1
 10
134.606745908
 20
200.705386127
 30
0.0
 11
135.0
 21
200.312132034
 31
0.0
  0
LINE
  8
0
  6
CONTINUOUS
 62
     1
 10
136.291954989
 20
204.591399929
 30
0.0
 11
135.652448956
 21
200.96458099
 31
0.0
  0
LINE
  8
0
  6
CONTINUOUS
 62
     1
 10
135.652448956
 20
200.96458099
 30
0.0
 11
135.0
 21
200.312132034
 31
0.0
  0
LINE
  8
0
  6
CONTINUOUS
 62
     1
 10
135.0
 20
199.887867966
 30
0.0
 11
135.393254092
 21
199.494613873
 31
0.0
  0
LINE
  8
0
  6
CONTINUOUS
 62
     1
 10
135.393254092
 20
199.494613873
 30
0.0
 11
134.704489756
 21
195.588437216
 31
0.0
  0
LINE
  8
0
  6
CONTINUOUS
 62
     1
 10
135.0
 20
199.887867966
 30
0.0
 11
134.347551044
 21
199.23541901
 31
0.0
  0
LINE
  8
0
  6
CONTINUOUS
 62
     1
 10
134.347551044
 20
199.23541901
 30
0.0
 11
133.828958012
 21
196.294331773
 31
0.0
  0
LINE
  8
0
  6
CONTINUOUS
 62
     1
 10
131.112132034
 20
200.6
 30
0.0
 11
134.287867966
 21
200.6
 31
0.0
  0
LINE
  8
0
  6
CONTINUOUS
 62
     1
 10
134.287867966
 20
200.6
 30
0.0
 11
134.787867966
 21
200.1
 31
0.0
  0
LINE
  8
0
  6
CONTINUOUS
 62
     1
 10
140.1003794
 20
204.948953747
 30
0.0
 11
140.799639696
 21
204.1
 31
0.0
  0
LINE
  8
0
  6
CONTINUOUS
 62
     1
 10
139.869909235
 20
204.756895276
 30
0.0
 11
140.571041988
 21
203.905668227
 31
0.0
  0
LINE
  8
0
  6
CONTINUOUS
 62
     1
 10
139.695510244
 20
204.611562784
 30
0.0
 11
139.869909235
 21
204.756895276
 31
0.0
  0
LINE
  8
0
  6
CONTINUOUS
 62
     1
 10
140.1003794
 20
204.948953747
 30
0.0
 11
140.281634904
 21
205.1
 31
0.0
  0
LINE
  8
0
  6
CONTINUOUS
 62
     1
 10
140.799639696
 20
204.1
 30
0.0
 11
143.973717193
 21
204.1
 31
0.0
  0
LINE
  8
0
  6
CONTINUOUS
 62
     1
 10
140.281634904
 20
205.1
 30
0.0
 11
144.681634904
 21
205.1
 31
0.0
  0
LINE
  8
0
  6
CONTINUOUS
 62
     1
 10
144.91817269
 20
204.902885178
 30
0.0
 11
143.973717193
 21
204.1
 31
0.0
  0
LINE
  8
0
  6
CONTINUOUS
 62
     1
 10
145.152070532
 20
204.70797031
 30
0.0
 11
144.164472229
 21
203.86840927
 31
0.0
  0
LINE
  8
0
  6
CONTINUOUS
 62
     1
 10
145.291954989
 20
204.591399929
 30
0.0
 11
145.152070532
 21
204.70797031
 31
0.0
  0
LINE
  8
0
  6
CONTINUOUS
 62
     1
 10
144.91817269
 20
204.902885178
 30
0.0
 11
144.681634904
 21
205.1
 31
0.0
  0
LINE
  8
0
  6
CONTINUOUS
 62
     1
 10
140.571041988
 20
203.905668227
 30
0.0
 11
140.052448956
 21
200.96458099
 31
0.0
  0
LINE
  8
0
  6
CONTINUOUS
 62
     1
 10
139.612132034
 20
200.1
 30
0.0
 11
140.112132034
 21
199.6
 31
0.0
  0
LINE
  8
0
  6
CONTINUOUS
 62
     1
 10
140.112132034
 20
200.6
 30
0.0
 11
139.612132034
 21
200.1
 31
0.0
  0
LINE
  8
0
  6
CONTINUOUS
 62
     1
 10
140.052448956
 20
200.96458099
 30
0.0
 11
139.4
 21
200.312132034
 31
0.0
  0
LINE
  8
0
  6
CONTINUOUS
 62
     1
 10
139.4
 20
199.887867966
 30
0.0
 11
139.793254092
 21
199.494613873
 31
0.0
  0
LINE
  8
0
  6
CONTINUOUS
 62
     1
 10
139.695510244
 20
204.611562784
 30
0.0
 11
139.006745908
 21
200.705386127
 31
0.0
  0
LINE
  8
0
  6
CONTINUOUS
 62
     1
 10
139.006745908
 20
200.705386127
 30
0.0
 11
139.4
 21
200.312132034
 31
0.0
  0
LINE
  8
0
  6
CONTINUOUS
 62
     1
 10
139.4
 20
199.887867966
 30
0.0
 11
138.747551044
 21
199.23541901
 31
0.0
  0
LINE
  8
0
  6
CONTINUOUS
 62
     1
 10
138.747551044
 20
199.23541901
 30
0.0
 11
138.108045011
 21
195.608600071
 31
0.0
  0
LINE
  8
0
  6
CONTINUOUS
 62
     1
 10
138.108045011
 20
195.608600071
 30
0.0
 11
138.247929468
 21
195.49202969
 31
0.0
  0
LINE
  8
0
  6
CONTINUOUS
 62
     1
 10
138.48182731
 20
195.297114822
 30
0.0
 11
138.718365096
 21
195.1
 31
0.0
  0
LINE
  8
0
  6
CONTINUOUS
 62
     1
 10
139.793254092
 20
199.494613873
 30
0.0
 11
139.235527771
 21
196.33159073
 31
0.0
  0
LINE
  8
0
  6
CONTINUOUS
 62
     1
 10
138.247929468
 20
195.49202969
 30
0.0
 11
139.235527771
 21
196.33159073
 31
0.0
  0
LINE
  8
0
  6
CONTINUOUS
 62
     1
 10
138.48182731
 20
195.297114822
 30
0.0
 11
139.426282807
 21
196.1
 31
0.0
  0
LINE
  8
0
  6
CONTINUOUS
 62
     1
 10
139.426282807
 20
196.1
 30
0.0
 11
142.600360304
 21
196.1
 31
0.0
  0
LINE
  8
0
  6
CONTINUOUS
 62
     1
 10
143.2996206
 20
195.251046253
 30
0.0
 11
142.600360304
 21
196.1
 31
0.0
  0
LINE
  8
0
  6
CONTINUOUS
 62
     1
 10
143.530090765
 20
195.443104724
 30
0.0
 11
142.828958012
 21
196.294331773
 31
0.0
  0
LINE
  8
0
  6
CONTINUOUS
 62
     1
 10
143.704489756
 20
195.588437216
 30
0.0
 11
143.530090765
 21
195.443104724
 31
0.0
  0
LINE
  8
0
  6
CONTINUOUS
 62
     1
 10
138.718365096
 20
195.1
 30
0.0
 11
143.118365096
 21
195.1
 31
0.0
  0
LINE
  8
0
  6
CONTINUOUS
 62
     1
 10
143.2996206
 20
195.251046253
 30
0.0
 11
143.118365096
 21
195.1
 31
0.0
  0
LINE
  8
0
  6
CONTINUOUS
 62
     1
 10
143.787867966
 20
200.1
 30
0.0
 11
143.287867966
 21
199.6
 31
0.0
  0
LINE
  8
0
  6
CONTINUOUS
 62
     1
 10
140.112132034
 20
199.6
 30
0.0
 11
143.287867966
 21
199.6
 31
0.0
  0
LINE
  8
0
  6
CONTINUOUS
 62
     1
 10
144.164472229
 20
203.86840927
 30
0.0
 11
143.606745908
 21
200.705386127
 31
0.0
  0
LINE
  8
0
  6
CONTINUOUS
 62
     1
 10
143.606745908
 20
200.705386127
 30
0.0
 11
144.0
 21
200.312132034
 31
0.0
  0
LINE
  8
0
  6
CONTINUOUS
 62
     1
 10
145.291954989
 20
204.591399929
 30
0.0
 11
144.652448956
 21
200.96458099
 31
0.0
  0
LINE
  8
0
  6
CONTINUOUS
 62
     1
 10
144.652448956
 20
200.96458099
 30
0.0
 11
144.0
 21
200.312132034
 31
0.0
  0
LINE
  8
0
  6
CONTINUOUS
 62
     1
 10
144.0
 20
199.887867966
 30
0.0
 11
144.393254092
 21
199.494613873
 31
0.0
  0
LINE
  8
0
  6
CONTINUOUS
 62
     1
 10
144.393254092
 20
199.494613873
 30
0.0
 11
143.704489756
 21
195.588437216
 31
0.0
  0
LINE
  8
0
  6
CONTINUOUS
 62
     1
 10
144.0
 20
199.887867966
 30
0.0
 11
143.347551044
 21
199.23541901
 31
0.0
  0
LINE
  8
0
  6
CONTINUOUS
 62
     1
 10
143.347551044
 20
199.23541901
 30
0.0
 11
142.828958012
 21
196.294331773
 31
0.0
  0
LINE
  8
0
  6
CONTINUOUS
 62
     1
 10
140.112132034
 20
200.6
 30
0.0
 11
143.287867966
 21
200.6
 31
0.0
  0
LINE
  8
0
  6
CONTINUOUS
 62
     1
 10
143.287867966
 20
200.6
 30
0.0
 11
143.787867966
 21
200.1
 31
0.0
  0
LINE
  8
0
  6
CONTINUOUS
 62
     1
 10
149.1003794
 20
204.948953747
 30
0.0
 11
149.799639696
 21
204.1
 31
0.0
  0
LINE
  8
0
  6
CONTINUOUS
 62
     1
 10
148.869909235
 20
204.756895276
 30
0.0
 11
149.571041988
 21
203.905668227
 31
0.0
  0
LINE
  8
0
  6
CONTINUOUS
 62
     1
 10
148.695510244
 20
204.611562784
 30
0.0
 11
148.869909235
 21
204.756895276
 31
0.0
  0
LINE
  8
0
  6
CONTINUOUS
 62
     1
 10
149.1003794
 20
204.948953747
 30
0.0
 11
149.281634904
 21
205.1
 31
0.0
  0
LINE
  8
0
  6
CONTINUOUS
 62
     1
 10
149.799639696
 20
204.1
 30
0.0
 11
152.973717193
 21
204.1
 31
0.0
  0
LINE
  8
0
  6
CONTINUOUS
 62
     1
 10
149.281634904
 20
205.1
 30
0.0
 11
153.681634904
 21
205.1
 31
0.0
  0
LINE
  8
0
  6
CONTINUOUS
 62
     1
 10
153.91817269
 20
204.902885178
 30
0.0
 11
152.973717193
 21
204.1
 31
0.0
  0
LINE
  8
0
  6
CONTINUOUS
 62
     1
 10
154.152070532
 20
204.70797031
 30
0.0
 11
153.164472229
 21
203.86840927
 31
0.0
  0
LINE
  8
0
  6
CONTINUOUS
 62
     1
 10
154.291954989
 20
204.591399929
 30
0.0
 11
154.152070532
 21
204.70797031
 31
0.0
  0
LINE
  8
0
  6
CONTINUOUS
 62
     1
 10
153.91817269
 20
204.902885178
 30
0.0
 11
153.681634904
 21
205.1
 31
0.0
  0
LINE
  8
0
  6
CONTINUOUS
 62
     1
 10
149.571041988
 20
203.905668227
 30
0.0
 11
149.052448956
 21
200.96458099
 31
0.0
  0
LINE
  8
0
  6
CONTINUOUS
 62
     1
 10
148.612132034
 20
200.1
 30
0.0
 11
149.112132034
 21
199.6
 31
0.0
  0
LINE
  8
0
  6
CONTINUOUS
 62
     1
 10
149.112132034
 20
200.6
 30
0.0
 11
148.612132034
 21
200.1
 31
0.0
  0
LINE
  8
0
  6
CONTINUOUS
 62
     1
 10
149.052448956
 20
200.96458099
 30
0.0
 11
148.4
 21
200.312132034
 31
0.0
  0
LINE
  8
0
  6
CONTINUOUS
 62
     1
 10
148.4
 20
199.887867966
 30
0.0
 11
148.793254092
 21
199.494613873
 31
0.0
  0
LINE
  8
0
  6
CONTINUOUS
 62
     1
 10
148.695510244
 20
204.611562784
 30
0.0
 11
148.006745908
 21
200.705386127
 31
0.0
  0
LINE
  8
0
  6
CONTINUOUS
 62
     1
 10
148.006745908
 20
200.705386127
 30
0.0
 11
148.4
 21
200.312132034
 31
0.0
  0
LINE
  8
0
  6
CONTINUOUS
 62
     1
 10
148.4
 20
199.887867966
 30
0.0
 11
147.747551044
 21
199.23541901
 31
0.0
  0
LINE
  8
0
  6
CONTINUOUS
 62
     1
 10
147.747551044
 20
199.23541901
 30
0.0
 11
147.108045011
 21
195.608600071
 31
0.0
  0
LINE
  8
0
  6
CONTINUOUS
 62
     1
 10
147.108045011
 20
195.608600071
 30
0.0
 11
147.247929468
 21
195.49202969
 31
0.0
  0
LINE
  8
0
  6
CONTINUOUS
 62
     1
 10
147.48182731
 20
195.297114822
 30
0.0
 11
147.718365096
 21
195.1
 31
0.0
  0
LINE
  8
0
  6
CONTINUOUS
 62
     1
 10
148.793254092
 20
199.494613873
 30
0.0
 11
148.235527771
 21
196.33159073
 31
0.0
  0
LINE
  8
0
  6
CONTINUOUS
 62
     1
 10
147.247929468
 20
195.49202969
 30
0.0
 11
148.235527771
 21
196.33159073
 31
0.0
  0
LINE
  8
0
  6
CONTINUOUS
 62
     1
 10
147.48182731
 20
195.297114822
 30
0.0
 11
148.426282807
 21
196.1
 31
0.0
  0
LINE
  8
0
  6
CONTINUOUS
 62
     1
 10
148.426282807
 20
196.1
 30
0.0
 11
151.600360304
 21
196.1
 31
0.0
  0
LINE
  8
0
  6
CONTINUOUS
 62
     1
 10
152.2996206
 20
195.251046253
 30
0.0
 11
151.600360304
 21
196.1
 31
0.0
  0
LINE
  8
0
  6
CONTINUOUS
 62
     1
 10
152.530090765
 20
195.443104724
 30
0.0
 11
151.828958012
 21
196.294331773
 31
0.0
  0
LINE
  8
0
  6
CONTINUOUS
 62
     1
 10
152.704489756
 20
195.588437216
 30
0.0
 11
152.530090765
 21
195.443104724
 31
0.0
  0
LINE
  8
0
  6
CONTINUOUS
 62
     1
 10
147.718365096
 20
195.1
 30
0.0
 11
152.118365096
 21
195.1
 31
0.0
  0
LINE
  8
0
  6
CONTINUOUS
 62
     1
 10
152.2996206
 20
195.251046253
 30
0.0
 11
152.118365096
 21
195.1
 31
0.0
  0
LINE
  8
0
  6
CONTINUOUS
 62
     1
 10
152.787867966
 20
200.1
 30
0.0
 11
152.287867966
 21
199.6
 31
0.0
  0
LINE
  8
0
  6
CONTINUOUS
 62
     1
 10
149.112132034
 20
199.6
 30
0.0
 11
152.287867966
 21
199.6
 31
0.0
  0
LINE
  8
0
  6
CONTINUOUS
 62
     1
 10
153.164472229
 20
203.86840927
 30
0.0
 11
152.606745908
 21
200.705386127
 31
0.0
  0
LINE
  8
0
  6
CONTINUOUS
 62
     1
 10
152.606745908
 20
200.705386127
 30
0.0
 11
153.0
 21
200.312132034
 31
0.0
  0
LINE
  8
0
  6
CONTINUOUS
 62
     1
 10
154.291954989
 20
204.591399929
 30
0.0
 11
153.652448956
 21
200.96458099
 31
0.0
  0
LINE
  8
0
  6
CONTINUOUS
 62
     1
 10
153.652448956
 20
200.96458099
 30
0.0
 11
153.0
 21
200.312132034
 31
0.0
  0
LINE
  8
0
  6
CONTINUOUS
 62
     1
 10
153.0
 20
199.887867966
 30
0.0
 11
153.393254092
 21
199.494613873
 31
0.0
  0
LINE
  8
0
  6
CONTINUOUS
 62
     1
 10
153.393254092
 20
199.494613873
 30
0.0
 11
152.704489756
 21
195.588437216
 31
0.0
  0
LINE
  8
0
  6
CONTINUOUS
 62
     1
 10
153.0
 20
199.887867966
 30
0.0
 11
152.347551044
 21
199.23541901
 31
0.0
  0
LINE
  8
0
  6
CONTINUOUS
 62
     1
 10
152.347551044
 20
199.23541901
 30
0.0
 11
151.828958012
 21
196.294331773
 31
0.0
  0
LINE
  8
0
  6
CONTINUOUS
 62
     1
 10
149.112132034
 20
200.6
 30
0.0
 11
152.287867966
 21
200.6
 31
0.0
  0
LINE
  8
0
  6
CONTINUOUS
 62
     1
 10
152.287867966
 20
200.6
 30
0.0
 11
152.787867966
 21
200.1
 31
0.0
  0
CIRCLE
  8
0
  6
CONTINUOUS
 62
     1
 10
153.9
 20
195.5
 30
0.0
 40
0.6
  0
CIRCLE
  8
0
  6
CONTINUOUS
 62
     1
 10
144.9
 20
195.5
 30
0.0
 40
0.6
  0
CIRCLE
  8
0
  6
CONTINUOUS
 62
     1
 10
135.9
 20
195.5
 30
0.0
 40
0.6
  0
CIRCLE
  8
0
  6
CONTINUOUS
 62
     1
 10
126.9
 20
195.5
 30
0.0
 40
0.6
  0
LINE
  8
0
  6
CONTINUOUS
 62
     1
 10
150.42030352
 20
192.979162998
 30
0.0
 11
150.979711757
 21
192.3
 31
0.0
  0
LINE
  8
0
  6
CONTINUOUS
 62
     1
 10
150.235927388
 20
192.825516221
 30
0.0
 11
150.79683359
 21
192.144534582
 31
0.0
  0
LINE
  8
0
  6
CONTINUOUS
 62
     1
 10
150.096408195
 20
192.709250227
 30
0.0
 11
150.235927388
 21
192.825516221
 31
0.0
  0
LINE
  8
0
  6
CONTINUOUS
 62
     1
 10
150.42030352
 20
192.979162998
 30
0.0
 11
150.565307923
 21
193.1
 31
0.0
  0
LINE
  8
0
  6
CONTINUOUS
 62
     1
 10
150.979711757
 20
192.3
 30
0.0
 11
153.518973754
 21
192.3
 31
0.0
  0
LINE
  8
0
  6
CONTINUOUS
 62
     1
 10
150.565307923
 20
193.1
 30
0.0
 11
154.085307923
 21
193.1
 31
0.0
  0
LINE
  8
0
  6
CONTINUOUS
 62
     1
 10
154.274538152
 20
192.942308142
 30
0.0
 11
153.518973754
 21
192.3
 31
0.0
  0
LINE
  8
0
  6
CONTINUOUS
 62
     1
 10
154.461656425
 20
192.786376248
 30
0.0
 11
153.671577783
 21
192.114727416
 31
0.0
  0
LINE
  8
0
  6
CONTINUOUS
 62
     1
 10
154.573563991
 20
192.693119943
 30
0.0
 11
154.461656425
 21
192.786376248
 31
0.0
  0
LINE
  8
0
  6
CONTINUOUS
 62
     1
 10
154.274538152
 20
192.942308142
 30
0.0
 11
154.085307923
 21
193.1
 31
0.0
  0
LINE
  8
0
  6
CONTINUOUS
 62
     1
 10
150.79683359
 20
192.144534582
 30
0.0
 11
150.381959164
 21
189.791664792
 31
0.0
  0
LINE
  8
0
  6
CONTINUOUS
 62
     1
 10
150.029705627
 20
189.1
 30
0.0
 11
150.429705627
 21
188.7
 31
0.0
  0
LINE
  8
0
  6
CONTINUOUS
 62
     1
 10
150.429705627
 20
189.5
 30
0.0
 11
150.029705627
 21
189.1
 31
0.0
  0
LINE
  8
0
  6
CONTINUOUS
 62
     1
 10
150.381959164
 20
189.791664792
 30
0.0
 11
149.86
 21
189.269705627
 31
0.0
  0
LINE
  8
0
  6
CONTINUOUS
 62
     1
 10
149.86
 20
188.930294373
 30
0.0
 11
150.174603274
 21
188.615691099
 31
0.0
  0
LINE
  8
0
  6
CONTINUOUS
 62
     1
 10
150.096408195
 20
192.709250227
 30
0.0
 11
149.545396726
 21
189.584308901
 31
0.0
  0
LINE
  8
0
  6
CONTINUOUS
 62
     1
 10
149.545396726
 20
189.584308901
 30
0.0
 11
149.86
 21
189.269705627
 31
0.0
  0
LINE
  8
0
  6
CONTINUOUS
 62
     1
 10
149.86
 20
188.930294373
 30
0.0
 11
149.338040836
 21
188.408335208
 31
0.0
  0
LINE
  8
0
  6
CONTINUOUS
 62
     1
 10
149.338040836
 20
188.408335208
 30
0.0
 11
148.826436009
 21
185.506880057
 31
0.0
  0
LINE
  8
0
  6
CONTINUOUS
 62
     1
 10
148.826436009
 20
185.506880057
 30
0.0
 11
148.938343575
 21
185.413623752
 31
0.0
  0
LINE
  8
0
  6
CONTINUOUS
 62
     1
 10
149.125461848
 20
185.257691858
 30
0.0
 11
149.314692077
 21
185.1
 31
0.0
  0
LINE
  8
0
  6
CONTINUOUS
 62
     1
 10
150.174603274
 20
188.615691099
 30
0.0
 11
149.728422217
 21
186.085272584
 31
0.0
  0
LINE
  8
0
  6
CONTINUOUS
 62
     1
 10
148.938343575
 20
185.413623752
 30
0.0
 11
149.728422217
 21
186.085272584
 31
0.0
  0
LINE
  8
0
  6
CONTINUOUS
 62
     1
 10
149.125461848
 20
185.257691858
 30
0.0
 11
149.881026246
 21
185.9
 31
0.0
  0
LINE
  8
0
  6
CONTINUOUS
 62
     1
 10
149.881026246
 20
185.9
 30
0.0
 11
152.420288243
 21
185.9
 31
0.0
  0
LINE
  8
0
  6
CONTINUOUS
 62
     1
 10
152.97969648
 20
185.220837002
 30
0.0
 11
152.420288243
 21
185.9
 31
0.0
  0
LINE
  8
0
  6
CONTINUOUS
 62
     1
 10
153.164072612
 20
185.374483779
 30
0.0
 11
152.60316641
 21
186.055465418
 31
0.0
  0
LINE
  8
0
  6
CONTINUOUS
 62
     1
 10
153.303591805
 20
185.490749773
 30
0.0
 11
153.164072612
 21
185.374483779
 31
0.0
  0
LINE
  8
0
  6
CONTINUOUS
 62
     1
 10
149.314692077
 20
185.1
 30
0.0
 11
152.834692077
 21
185.1
 31
0.0
  0
LINE
  8
0
  6
CONTINUOUS
 62
     1
 10
152.97969648
 20
185.220837002
 30
0.0
 11
152.834692077
 21
185.1
 31
0.0
  0
LINE
  8
0
  6
CONTINUOUS
 62
     1
 10
153.370294373
 20
189.1
 30
0.0
 11
152.970294373
 21
188.7
 31
0.0
  0
LINE
  8
0
  6
CONTINUOUS
 62
     1
 10
150.429705627
 20
188.7
 30
0.0
 11
152.970294373
 21
188.7
 31
0.0
  0
LINE
  8
0
  6
CONTINUOUS
 62
     1
 10
153.671577783
 20
192.114727416
 30
0.0
 11
153.225396726
 21
189.584308901
 31
0.0
  0
LINE
  8
0
  6
CONTINUOUS
 62
     1
 10
153.225396726
 20
189.584308901
 30
0.0
 11
153.54
 21
189.269705627
 31
0.0
  0
LINE
  8
0
  6
CONTINUOUS
 62
     1
 10
154.573563991
 20
192.693119943
 30
0.0
 11
154.061959164
 21
189.791664792
 31
0.0
  0
LINE
  8
0
  6
CONTINUOUS
 62
     1
 10
154.061959164
 20
189.791664792
 30
0.0
 11
153.54
 21
189.269705627
 31
0.0
  0
LINE
  8
0
  6
CONTINUOUS
 62
     1
 10
153.54
 20
188.930294373
 30
0.0
 11
153.854603274
 21
188.615691099
 31
0.0
  0
LINE
  8
0
  6
CONTINUOUS
 62
     1
 10
153.854603274
 20
188.615691099
 30
0.0
 11
153.303591805
 21
185.490749773
 31
0.0
  0
LINE
  8
0
  6
CONTINUOUS
 62
     1
 10
153.54
 20
188.930294373
 30
0.0
 11
153.018040836
 21
188.408335208
 31
0.0
  0
LINE
  8
0
  6
CONTINUOUS
 62
     1
 10
153.018040836
 20
188.408335208
 30
0.0
 11
152.60316641
 21
186.055465418
 31
0.0
  0
LINE
  8
0
  6
CONTINUOUS
 62
     1
 10
150.429705627
 20
189.5
 30
0.0
 11
152.970294373
 21
189.5
 31
0.0
  0
LINE
  8
0
  6
CONTINUOUS
 62
     1
 10
152.970294373
 20
189.5
 30
0.0
 11
153.370294373
 21
189.1
 31
0.0
  0
CIRCLE
  8
0
  6
CONTINUOUS
 62
     1
 10
154.26
 20
185.42
 30
0.0
 40
0.45
  0
LINE
  8
0
  6
CONTINUOUS
 62
     1
 10
142.92030352
 20
192.979162998
 30
0.0
 11
143.479711757
 21
192.3
 31
0.0
  0
LINE
  8
0
  6
CONTINUOUS
 62
     1
 10
142.735927388
 20
192.825516221
 30
0.0
 11
143.29683359
 21
192.144534582
 31
0.0
  0
LINE
  8
0
  6
CONTINUOUS
 62
     1
 10
142.596408195
 20
192.709250227
 30
0.0
 11
142.735927388
 21
192.825516221
 31
0.0
  0
LINE
  8
0
  6
CONTINUOUS
 62
     1
 10
142.92030352
 20
192.979162998
 30
0.0
 11
143.065307923
 21
193.1
 31
0.0
  0
LINE
  8
0
  6
CONTINUOUS
 62
     1
 10
143.479711757
 20
192.3
 30
0.0
 11
146.018973754
 21
192.3
 31
0.0
  0
LINE
  8
0
  6
CONTINUOUS
 62
     1
 10
143.065307923
 20
193.1
 30
0.0
 11
146.585307923
 21
193.1
 31
0.0
  0
LINE
  8
0
  6
CONTINUOUS
 62
     1
 10
146.774538152
 20
192.942308142
 30
0.0
 11
146.018973754
 21
192.3
 31
0.0
  0
LINE
  8
0
  6
CONTINUOUS
 62
     1
 10
146.961656425
 20
192.786376248
 30
0.0
 11
146.171577783
 21
192.114727416
 31
0.0
  0
LINE
  8
0
  6
CONTINUOUS
 62
     1
 10
147.073563991
 20
192.693119943
 30
0.0
 11
146.961656425
 21
192.786376248
 31
0.0
  0
LINE
  8
0
  6
CONTINUOUS
 62
     1
 10
146.774538152
 20
192.942308142
 30
0.0
 11
146.585307923
 21
193.1
 31
0.0
  0
LINE
  8
0
  6
CONTINUOUS
 62
     1
 10
143.29683359
 20
192.144534582
 30
0.0
 11
142.881959164
 21
189.791664792
 31
0.0
  0
LINE
  8
0
  6
CONTINUOUS
 62
     1
 10
142.529705627
 20
189.1
 30
0.0
 11
142.929705627
 21
188.7
 31
0.0
  0
LINE
  8
0
  6
CONTINUOUS
 62
     1
 10
142.929705627
 20
189.5
 30
0.0
 11
142.529705627
 21
189.1
 31
0.0
  0
LINE
  8
0
  6
CONTINUOUS
 62
     1
 10
142.881959164
 20
189.791664792
 30
0.0
 11
142.36
 21
189.269705627
 31
0.0
  0
LINE
  8
0
  6
CONTINUOUS
 62
     1
 10
142.36
 20
188.930294373
 30
0.0
 11
142.674603274
 21
188.615691099
 31
0.0
  0
LINE
  8
0
  6
CONTINUOUS
 62
     1
 10
142.596408195
 20
192.709250227
 30
0.0
 11
142.045396726
 21
189.584308901
 31
0.0
  0
LINE
  8
0
  6
CONTINUOUS
 62
     1
 10
142.045396726
 20
189.584308901
 30
0.0
 11
142.36
 21
189.269705627
 31
0.0
  0
LINE
  8
0
  6
CONTINUOUS
 62
     1
 10
142.36
 20
188.930294373
 30
0.0
 11
141.838040836
 21
188.408335208
 31
0.0
  0
LINE
  8
0
  6
CONTINUOUS
 62
     1
 10
141.838040836
 20
188.408335208
 30
0.0
 11
141.326436009
 21
185.506880057
 31
0.0
  0
LINE
  8
0
  6
CONTINUOUS
 62
     1
 10
141.326436009
 20
185.506880057
 30
0.0
 11
141.438343575
 21
185.413623752
 31
0.0
  0
LINE
  8
0
  6
CONTINUOUS
 62
     1
 10
141.625461848
 20
185.257691858
 30
0.0
 11
141.814692077
 21
185.1
 31
0.0
  0
LINE
  8
0
  6
CONTINUOUS
 62
     1
 10
142.674603274
 20
188.615691099
 30
0.0
 11
142.228422217
 21
186.085272584
 31
0.0
  0
LINE
  8
0
  6
CONTINUOUS
 62
     1
 10
141.438343575
 20
185.413623752
 30
0.0
 11
142.228422217
 21
186.085272584
 31
0.0
  0
LINE
  8
0
  6
CONTINUOUS
 62
     1
 10
141.625461848
 20
185.257691858
 30
0.0
 11
142.381026246
 21
185.9
 31
0.0
  0
LINE
  8
0
  6
CONTINUOUS
 62
     1
 10
142.381026246
 20
185.9
 30
0.0
 11
144.920288243
 21
185.9
 31
0.0
  0
LINE
  8
0
  6
CONTINUOUS
 62
     1
 10
145.47969648
 20
185.220837002
 30
0.0
 11
144.920288243
 21
185.9
 31
0.0
  0
LINE
  8
0
  6
CONTINUOUS
 62
     1
 10
145.664072612
 20
185.374483779
 30
0.0
 11
145.10316641
 21
186.055465418
 31
0.0
  0
LINE
  8
0
  6
CONTINUOUS
 62
     1
 10
145.803591805
 20
185.490749773
 30
0.0
 11
145.664072612
 21
185.374483779
 31
0.0
  0
LINE
  8
0
  6
CONTINUOUS
 62
     1
 10
141.814692077
 20
185.1
 30
0.0
 11
145.334692077
 21
185.1
 31
0.0
  0
LINE
  8
0
  6
CONTINUOUS
 62
     1
 10
145.47969648
 20
185.220837002
 30
0.0
 11
145.334692077
 21
185.1
 31
0.0
  0
LINE
  8
0
  6
CONTINUOUS
 62
     1
 10
145.870294373
 20
189.1
 30
0.0
 11
145.470294373
 21
188.7
 31
0.0
  0
LINE
  8
0
  6
CONTINUOUS
 62
     1
 10
142.929705627
 20
188.7
 30
0.0
 11
145.470294373
 21
188.7
 31
0.0
  0
LINE
  8
0
  6
CONTINUOUS
 62
     1
 10
146.171577783
 20
192.114727416
 30
0.0
 11
145.725396726
 21
189.584308901
 31
0.0
  0
LINE
  8
0
  6
CONTINUOUS
 62
     1
 10
145.725396726
 20
189.584308901
 30
0.0
 11
146.04
 21
189.269705627
 31
0.0
  0
LINE
  8
0
  6
CONTINUOUS
 62
     1
 10
147.073563991
 20
192.693119943
 30
0.0
 11
146.561959164
 21
189.791664792
 31
0.0
  0
LINE
  8
0
  6
CONTINUOUS
 62
     1
 10
146.561959164
 20
189.791664792
 30
0.0
 11
146.04
 21
189.269705627
 31
0.0
  0
LINE
  8
0
  6
CONTINUOUS
 62
     1
 10
146.04
 20
188.930294373
 30
0.0
 11
146.354603274
 21
188.615691099
 31
0.0
  0
LINE
  8
0
  6
CONTINUOUS
 62
     1
 10
146.354603274
 20
188.615691099
 30
0.0
 11
145.803591805
 21
185.490749773
 31
0.0
  0
LINE
  8
0
  6
CONTINUOUS
 62
     1
 10
146.04
 20
188.930294373
 30
0.0
 11
145.518040836
 21
188.408335208
 31
0.0
  0
LINE
  8
0
  6
CONTINUOUS
 62
     1
 10
145.518040836
 20
188.408335208
 30
0.0
 11
145.10316641
 21
186.055465418
 31
0.0
  0
LINE
  8
0
  6
CONTINUOUS
 62
     1
 10
142.929705627
 20
189.5
 30
0.0
 11
145.470294373
 21
189.5
 31
0.0
  0
LINE
  8
0
  6
CONTINUOUS
 62
     1
 10
145.470294373
 20
189.5
 30
0.0
 11
145.870294373
 21
189.1
 31
0.0
  0
CIRCLE
  8
0
  6
CONTINUOUS
 62
     1
 10
146.76
 20
185.42
 30
0.0
 40
0.45
  0
LINE
  8
0
  6
CONTINUOUS
 62
     1
 10
135.42030352
 20
192.979162998
 30
0.0
 11
135.979711757
 21
192.3
 31
0.0
  0
LINE
  8
0
  6
CONTINUOUS
 62
     1
 10
135.235927388
 20
192.825516221
 30
0.0
 11
135.79683359
 21
192.144534582
 31
0.0
  0
LINE
  8
0
  6
CONTINUOUS
 62
     1
 10
135.096408195
 20
192.709250227
 30
0.0
 11
135.235927388
 21
192.825516221
 31
0.0
  0
LINE
  8
0
  6
CONTINUOUS
 62
     1
 10
135.42030352
 20
192.979162998
 30
0.0
 11
135.565307923
 21
193.1
 31
0.0
  0
LINE
  8
0
  6
CONTINUOUS
 62
     1
 10
135.979711757
 20
192.3
 30
0.0
 11
138.518973754
 21
192.3
 31
0.0
  0
LINE
  8
0
  6
CONTINUOUS
 62
     1
 10
135.565307923
 20
193.1
 30
0.0
 11
139.085307923
 21
193.1
 31
0.0
  0
LINE
  8
0
  6
CONTINUOUS
 62
     1
 10
139.274538152
 20
192.942308142
 30
0.0
 11
138.518973754
 21
192.3
 31
0.0
  0
LINE
  8
0
  6
CONTINUOUS
 62
     1
 10
139.461656425
 20
192.786376248
 30
0.0
 11
138.671577783
 21
192.114727416
 31
0.0
  0
LINE
  8
0
  6
CONTINUOUS
 62
     1
 10
139.573563991
 20
192.693119943
 30
0.0
 11
139.461656425
 21
192.786376248
 31
0.0
  0
LINE
  8
0
  6
CONTINUOUS
 62
     1
 10
139.274538152
 20
192.942308142
 30
0.0
 11
139.085307923
 21
193.1
 31
0.0
  0
LINE
  8
0
  6
CONTINUOUS
 62
     1
 10
135.79683359
 20
192.144534582
 30
0.0
 11
135.381959164
 21
189.791664792
 31
0.0
  0
LINE
  8
0
  6
CONTINUOUS
 62
     1
 10
135.029705627
 20
189.1
 30
0.0
 11
135.429705627
 21
188.7
 31
0.0
  0
LINE
  8
0
  6
CONTINUOUS
 62
     1
 10
135.429705627
 20
189.5
 30
0.0
 11
135.029705627
 21
189.1
 31
0.0
  0
LINE
  8
0
  6
CONTINUOUS
 62
     1
 10
135.381959164
 20
189.791664792
 30
0.0
 11
134.86
 21
189.269705627
 31
0.0
  0
LINE
  8
0
  6
CONTINUOUS
 62
     1
 10
134.86
 20
188.930294373
 30
0.0
 11
135.174603274
 21
188.615691099
 31
0.0
  0
LINE
  8
0
  6
CONTINUOUS
 62
     1
 10
135.096408195
 20
192.709250227
 30
0.0
 11
134.545396726
 21
189.584308901
 31
0.0
  0
LINE
  8
0
  6
CONTINUOUS
 62
     1
 10
134.545396726
 20
189.584308901
 30
0.0
 11
134.86
 21
189.269705627
 31
0.0
  0
LINE
  8
0
  6
CONTINUOUS
 62
     1
 10
134.86
 20
188.930294373
 30
0.0
 11
134.338040836
 21
188.408335208
 31
0.0
  0
LINE
  8
0
  6
CONTINUOUS
 62
     1
 10
134.338040836
 20
188.408335208
 30
0.0
 11
133.826436009
 21
185.506880057
 31
0.0
  0
LINE
  8
0
  6
CONTINUOUS
 62
     1
 10
133.826436009
 20
185.506880057
 30
0.0
 11
133.938343575
 21
185.413623752
 31
0.0
  0
LINE
  8
0
  6
CONTINUOUS
 62
     1
 10
134.125461848
 20
185.257691858
 30
0.0
 11
134.314692077
 21
185.1
 31
0.0
  0
LINE
  8
0
  6
CONTINUOUS
 62
     1
 10
135.174603274
 20
188.615691099
 30
0.0
 11
134.728422217
 21
186.085272584
 31
0.0
  0
LINE
  8
0
  6
CONTINUOUS
 62
     1
 10
133.938343575
 20
185.413623752
 30
0.0
 11
134.728422217
 21
186.085272584
 31
0.0
  0
LINE
  8
0
  6
CONTINUOUS
 62
     1
 10
134.125461848
 20
185.257691858
 30
0.0
 11
134.881026246
 21
185.9
 31
0.0
  0
LINE
  8
0
  6
CONTINUOUS
 62
     1
 10
134.881026246
 20
185.9
 30
0.0
 11
137.420288243
 21
185.9
 31
0.0
  0
LINE
  8
0
  6
CONTINUOUS
 62
     1
 10
137.97969648
 20
185.220837002
 30
0.0
 11
137.420288243
 21
185.9
 31
0.0
  0
LINE
  8
0
  6
CONTINUOUS
 62
     1
 10
138.164072612
 20
185.374483779
 30
0.0
 11
137.60316641
 21
186.055465418
 31
0.0
  0
LINE
  8
0
  6
CONTINUOUS
 62
     1
 10
138.303591805
 20
185.490749773
 30
0.0
 11
138.164072612
 21
185.374483779
 31
0.0
  0
LINE
  8
0
  6
CONTINUOUS
 62
     1
 10
134.314692077
 20
185.1
 30
0.0
 11
137.834692077
 21
185.1
 31
0.0
  0
LINE
  8
0
  6
CONTINUOUS
 62
     1
 10
137.97969648
 20
185.220837002
 30
0.0
 11
137.834692077
 21
185.1
 31
0.0
  0
LINE
  8
0
  6
CONTINUOUS
 62
     1
 10
138.370294373
 20
189.1
 30
0.0
 11
137.970294373
 21
188.7
 31
0.0
  0
LINE
  8
0
  6
CONTINUOUS
 62
     1
 10
135.429705627
 20
188.7
 30
0.0
 11
137.970294373
 21
188.7
 31
0.0
  0
LINE
  8
0
  6
CONTINUOUS
 62
     1
 10
138.671577783
 20
192.114727416
 30
0.0
 11
138.225396726
 21
189.584308901
 31
0.0
  0
LINE
  8
0
  6
CONTINUOUS
 62
     1
 10
138.225396726
 20
189.584308901
 30
0.0
 11
138.54
 21
189.269705627
 31
0.0
  0
LINE
  8
0
  6
CONTINUOUS
 62
     1
 10
139.573563991
 20
192.693119943
 30
0.0
 11
139.061959164
 21
189.791664792
 31
0.0
  0
LINE
  8
0
  6
CONTINUOUS
 62
     1
 10
139.061959164
 20
189.791664792
 30
0.0
 11
138.54
 21
189.269705627
 31
0.0
  0
LINE
  8
0
  6
CONTINUOUS
 62
     1
 10
138.54
 20
188.930294373
 30
0.0
 11
138.854603274
 21
188.615691099
 31
0.0
  0
LINE
  8
0
  6
CONTINUOUS
 62
     1
 10
138.854603274
 20
188.615691099
 30
0.0
 11
138.303591805
 21
185.490749773
 31
0.0
  0
LINE
  8
0
  6
CONTINUOUS
 62
     1
 10
138.54
 20
188.930294373
 30
0.0
 11
138.018040836
 21
188.408335208
 31
0.0
  0
LINE
  8
0
  6
CONTINUOUS
 62
     1
 10
138.018040836
 20
188.408335208
 30
0.0
 11
137.60316641
 21
186.055465418
 31
0.0
  0
LINE
  8
0
  6
CONTINUOUS
 62
     1
 10
135.429705627
 20
189.5
 30
0.0
 11
137.970294373
 21
189.5
 31
0.0
  0
LINE
  8
0
  6
CONTINUOUS
 62
     1
 10
137.970294373
 20
189.5
 30
0.0
 11
138.370294373
 21
189.1
 31
0.0
  0
CIRCLE
  8
0
  6
CONTINUOUS
 62
     1
 10
139.26
 20
185.42
 30
0.0
 40
0.45
  0
LINE
  8
0
  6
CONTINUOUS
 62
     1
 10
127.92030352
 20
192.979162998
 30
0.0
 11
128.479711757
 21
192.3
 31
0.0
  0
LINE
  8
0
  6
CONTINUOUS
 62
     1
 10
127.735927388
 20
192.825516221
 30
0.0
 11
128.29683359
 21
192.144534582
 31
0.0
  0
LINE
  8
0
  6
CONTINUOUS
 62
     1
 10
127.596408195
 20
192.709250227
 30
0.0
 11
127.735927388
 21
192.825516221
 31
0.0
  0
LINE
  8
0
  6
CONTINUOUS
 62
     1
 10
127.92030352
 20
192.979162998
 30
0.0
 11
128.065307923
 21
193.1
 31
0.0
  0
LINE
  8
0
  6
CONTINUOUS
 62
     1
 10
128.479711757
 20
192.3
 30
0.0
 11
131.018973754
 21
192.3
 31
0.0
  0
LINE
  8
0
  6
CONTINUOUS
 62
     1
 10
128.065307923
 20
193.1
 30
0.0
 11
131.585307923
 21
193.1
 31
0.0
  0
LINE
  8
0
  6
CONTINUOUS
 62
     1
 10
131.774538152
 20
192.942308142
 30
0.0
 11
131.018973754
 21
192.3
 31
0.0
  0
LINE
  8
0
  6
CONTINUOUS
 62
     1
 10
131.961656425
 20
192.786376248
 30
0.0
 11
131.171577783
 21
192.114727416
 31
0.0
  0
LINE
  8
0
  6
CONTINUOUS
 62
     1
 10
132.073563991
 20
192.693119943
 30
0.0
 11
131.961656425
 21
192.786376248
 31
0.0
  0
LINE
  8
0
  6
CONTINUOUS
 62
     1
 10
131.774538152
 20
192.942308142
 30
0.0
 11
131.585307923
 21
193.1
 31
0.0
  0
LINE
  8
0
  6
CONTINUOUS
 62
     1
 10
128.29683359
 20
192.144534582
 30
0.0
 11
127.881959164
 21
189.791664792
 31
0.0
  0
LINE
  8
0
  6
CONTINUOUS
 62
     1
 10
127.529705627
 20
189.1
 30
0.0
 11
127.929705627
 21
188.7
 31
0.0
  0
LINE
  8
0
  6
CONTINUOUS
 62
     1
 10
127.929705627
 20
189.5
 30
0.0
 11
127.529705627
 21
189.1
 31
0.0
  0
LINE
  8
0
  6
CONTINUOUS
 62
     1
 10
127.881959164
 20
189.791664792
 30
0.0
 11
127.36
 21
189.269705627
 31
0.0
  0
LINE
  8
0
  6
CONTINUOUS
 62
     1
 10
127.36
 20
188.930294373
 30
0.0
 11
127.674603274
 21
188.615691099
 31
0.0
  0
LINE
  8
0
  6
CONTINUOUS
 62
     1
 10
127.596408195
 20
192.709250227
 30
0.0
 11
127.045396726
 21
189.584308901
 31
0.0
  0
LINE
  8
0
  6
CONTINUOUS
 62
     1
 10
127.045396726
 20
189.584308901
 30
0.0
 11
127.36
 21
189.269705627
 31
0.0
  0
LINE
  8
0
  6
CONTINUOUS
 62
     1
 10
127.36
 20
188.930294373
 30
0.0
 11
126.838040836
 21
188.408335208
 31
0.0
  0
LINE
  8
0
  6
CONTINUOUS
 62
     1
 10
126.838040836
 20
188.408335208
 30
0.0
 11
126.326436009
 21
185.506880057
 31
0.0
  0
LINE
  8
0
  6
CONTINUOUS
 62
     1
 10
126.326436009
 20
185.506880057
 30
0.0
 11
126.438343575
 21
185.413623752
 31
0.0
  0
LINE
  8
0
  6
CONTINUOUS
 62
     1
 10
126.625461848
 20
185.257691858
 30
0.0
 11
126.814692077
 21
185.1
 31
0.0
  0
LINE
  8
0
  6
CONTINUOUS
 62
     1
 10
127.674603274
 20
188.615691099
 30
0.0
 11
127.228422217
 21
186.085272584
 31
0.0
  0
LINE
  8
0
  6
CONTINUOUS
 62
     1
 10
126.438343575
 20
185.413623752
 30
0.0
 11
127.228422217
 21
186.085272584
 31
0.0
  0
LINE
  8
0
  6
CONTINUOUS
 62
     1
 10
126.625461848
 20
185.257691858
 30
0.0
 11
127.381026246
 21
185.9
 31
0.0
  0
LINE
  8
0
  6
CONTINUOUS
 62
     1
 10
127.381026246
 20
185.9
 30
0.0
 11
129.920288243
 21
185.9
 31
0.0
  0
LINE
  8
0
  6
CONTINUOUS
 62
     1
 10
130.47969648
 20
185.220837002
 30
0.0
 11
129.920288243
 21
185.9
 31
0.0
  0
LINE
  8
0
  6
CONTINUOUS
 62
     1
 10
130.664072612
 20
185.374483779
 30
0.0
 11
130.10316641
 21
186.055465418
 31
0.0
  0
LINE
  8
0
  6
CONTINUOUS
 62
     1
 10
130.803591805
 20
185.490749773
 30
0.0
 11
130.664072612
 21
185.374483779
 31
0.0
  0
LINE
  8
0
  6
CONTINUOUS
 62
     1
 10
126.814692077
 20
185.1
 30
0.0
 11
130.334692077
 21
185.1
 31
0.0
  0
LINE
  8
0
  6
CONTINUOUS
 62
     1
 10
130.47969648
 20
185.220837002
 30
0.0
 11
130.334692077
 21
185.1
 31
0.0
  0
LINE
  8
0
  6
CONTINUOUS
 62
     1
 10
130.870294373
 20
189.1
 30
0.0
 11
130.470294373
 21
188.7
 31
0.0
  0
LINE
  8
0
  6
CONTINUOUS
 62
     1
 10
127.929705627
 20
188.7
 30
0.0
 11
130.470294373
 21
188.7
 31
0.0
  0
LINE
  8
0
  6
CONTINUOUS
 62
     1
 10
131.171577783
 20
192.114727416
 30
0.0
 11
130.725396726
 21
189.584308901
 31
0.0
  0
LINE
  8
0
  6
CONTINUOUS
 62
     1
 10
130.725396726
 20
189.584308901
 30
0.0
 11
131.04
 21
189.269705627
 31
0.0
  0
LINE
  8
0
  6
CONTINUOUS
 62
     1
 10
132.073563991
 20
192.693119943
 30
0.0
 11
131.561959164
 21
189.791664792
 31
0.0
  0
LINE
  8
0
  6
CONTINUOUS
 62
     1
 10
131.561959164
 20
189.791664792
 30
0.0
 11
131.04
 21
189.269705627
 31
0.0
  0
LINE
  8
0
  6
CONTINUOUS
 62
     1
 10
131.04
 20
188.930294373
 30
0.0
 11
131.354603274
 21
188.615691099
 31
0.0
  0
LINE
  8
0
  6
CONTINUOUS
 62
     1
 10
131.354603274
 20
188.615691099
 30
0.0
 11
130.803591805
 21
185.490749773
 31
0.0
  0
LINE
  8
0
  6
CONTINUOUS
 62
     1
 10
131.04
 20
188.930294373
 30
0.0
 11
130.518040836
 21
188.408335208
 31
0.0
  0
LINE
  8
0
  6
CONTINUOUS
 62
     1
 10
130.518040836
 20
188.408335208
 30
0.0
 11
130.10316641
 21
186.055465418
 31
0.0
  0
LINE
  8
0
  6
CONTINUOUS
 62
     1
 10
127.929705627
 20
189.5
 30
0.0
 11
130.470294373
 21
189.5
 31
0.0
  0
LINE
  8
0
  6
CONTINUOUS
 62
     1
 10
130.470294373
 20
189.5
 30
0.0
 11
130.870294373
 21
189.1
 31
0.0
  0
CIRCLE
  8
0
  6
CONTINUOUS
 62
     1
 10
131.76
 20
185.42
 30
0.0
 40
0.45
  0
TEXT
  8
0
  6
CONTINUOUS
 62
     1
 10
121.1
 20
189.2
 30
-0.2
 40
1.8
  1
ＯＵＴ１
 50
0.0
 41
0.666666667
 51
0.0
  7
KANJI0
  0
TEXT
  8
0
  6
CONTINUOUS
 62
     1
 10
121.1
 20
185.2
 30
-0.2
 40
1.8
  1
ＯＵＴ２
 50
0.0
 41
0.666666667
 51
0.0
  7
KANJI0
  0
TEXT
  8
0
  6
CONTINUOUS
 62
     1
 10
121.1
 20
181.2
 30
0.0
 40
1.8
  1
ＡＬ１
 50
0.0
 41
0.833333333
 51
0.0
  7
KANJI1
  0
TEXT
  8
0
  6
CONTINUOUS
 62
     1
 10
129.1
 20
181.2
 30
0.0
 40
1.8
  1
ＡＬ２
 50
0.0
 41
0.833333333
 51
0.0
  7
KANJI1
  0
TEXT
  8
0
  6
CONTINUOUS
 62
     1
 10
137.1
 20
181.2
 30
0.0
 40
1.8
  1
ＣＯＭ
 50
0.0
 41
0.833333333
 51
0.0
  7
KANJI1
  0
TEXT
  8
0
  6
CONTINUOUS
 62
     1
 10
145.1
 20
181.2
 30
0.0
 40
1.8
  1
ＲＤＹ
 50
0.0
 41
0.833333333
 51
0.0
  7
KANJI1
  0
TEXT
  8
0
  6
CONTINUOUS
 62
     1
 10
153.1
 20
181.2
 30
0.0
 40
1.8
  1
ＤＩ
 50
0.0
 41
0.833333333
 51
0.0
  7
KANJI1
  0
TEXT
  8
0
  6
CONTINUOUS
 62
     1
 10
155.9
 20
203.8
 30
-0.2
 40
2.0
  1
ＰＶ
 50
0.0
 41
0.7
 51
0.0
  7
KANJI2
  0
TEXT
  8
0
  6
CONTINUOUS
 62
     1
 10
155.9
 20
191.3
 30
-0.2
 40
2.0
  1
ＳＶ
 50
0.0
 41
0.7
 51
0.0
  7
KANJI2
  0
ARC
  8
0
  6
CONTINUOUS
 62
     1
 10
119.7
 20
205.6
 30
0.0
 40
0.5
 50
90.0
 51
180.0
  0
ARC
  8
0
  6
CONTINUOUS
 62
     1
 10
154.7
 20
205.6
 30
0.0
 40
0.5
 50
0.0
 51
90.0
  0
LINE
  8
0
  6
CONTINUOUS
 62
     1
 10
155.2
 20
184.6
 30
0.0
 11
155.2
 21
205.6
 31
0.0
  0
ARC
  8
0
  6
CONTINUOUS
 62
     1
 10
154.7
 20
184.6
 30
0.0
 40
0.5
 50
270.0
 51
0.0
  0
LINE
  8
0
  6
CONTINUOUS
 62
     1
 10
126.2
 20
184.1
 30
0.0
 11
154.7
 21
184.1
 31
0.0
  0
ARC
  8
0
  6
CONTINUOUS
 62
     1
 10
126.2
 20
184.6
 30
0.0
 40
0.5
 50
180.0
 51
270.0
  0
LINE
  8
0
  6
CONTINUOUS
 62
     1
 10
125.7
 20
193.6
 30
0.0
 11
125.7
 21
184.6
 31
0.0
  0
ARC
  8
0
  6
CONTINUOUS
 62
     1
 10
125.2
 20
193.6
 30
0.0
 40
0.5
 50
360.0
 51
90.0
  0
LINE
  8
0
  6
CONTINUOUS
 62
     1
 10
119.2
 20
205.6
 30
0.0
 11
119.2
 21
194.6
 31
0.0
  0
LINE
  8
0
  6
CONTINUOUS
 62
     1
 10
119.7
 20
194.1
 30
0.0
 11
125.2
 21
194.1
 31
0.0
  0
ARC
  8
0
  6
CONTINUOUS
 62
     1
 10
119.7
 20
194.6
 30
0.0
 40
0.5
 50
180.0
 51
270.0
  0
LINE
  8
0
  6
CONTINUOUS
 62
     1
 10
148.9525
 20
167.94475
 30
0.0
 11
147.52275
 21
167.94475
 31
0.0
  0
LINE
  8
0
  6
CONTINUOUS
 62
     1
 10
147.52275
 20
167.54575
 30
0.0
 11
147.52275
 21
167.94475
 31
0.0
  0
LINE
  8
0
  6
CONTINUOUS
 62
     1
 10
147.52275
 20
167.54575
 30
0.0
 11
149.3515
 21
167.54575
 31
0.0
  0
ARC
  8
0
  6
CONTINUOUS
 62
     1
 10
148.9525
 20
167.54575
 30
0.0
 40
0.399
 50
0.0
 51
90.0
  0
LINE
  8
0
  6
CONTINUOUS
 62
     1
 10
148.25425
 20
167.54575
 30
0.0
 11
148.25425
 21
165.9165
 31
0.0
  0
LINE
  8
0
  6
CONTINUOUS
 62
     1
 10
148.25425
 20
165.9165
 30
0.0
 11
148.65325
 21
165.9165
 31
0.0
  0
LINE
  8
0
  6
CONTINUOUS
 62
     1
 10
148.65325
 20
165.9165
 30
0.0
 11
148.65325
 21
167.54575
 31
0.0
  0
LINE
  8
0
  6
CONTINUOUS
 62
     1
 10
150.349
 20
167.5125
 30
0.0
 11
151.3465
 21
167.5125
 31
0.0
  0
LINE
  8
0
  6
CONTINUOUS
 62
     1
 10
150.9475
 20
167.9115
 30
0.0
 11
150.31575
 21
167.9115
 31
0.0
  0
ARC
  8
0
  6
CONTINUOUS
 62
     1
 10
150.9475
 20
167.5125
 30
0.0
 40
0.399
 50
0.0
 51
90.0
  0
ARC
  8
0
  6
CONTINUOUS
 62
     1
 10
150.349
 20
166.914
 30
0.0
 40
0.5985
 50
93.2
 51
227.3
  0
ARC
  8
0
  6
CONTINUOUS
 62
     1
 10
150.349
 20
166.914
 30
0.0
 40
0.9975
 50
91.9
 51
205.7
  0
LINE
  8
0
  6
CONTINUOUS
 62
     1
 10
151.71225
 20
167.9115
 30
0.0
 11
151.71225
 21
165.9165
 31
0.0
  0
LINE
  8
0
  6
CONTINUOUS
 62
     1
 10
152.11125
 20
165.9165
 30
0.0
 11
151.71225
 21
165.9165
 31
0.0
  0
LINE
  8
0
  6
CONTINUOUS
 62
     1
 10
152.11125
 20
165.9165
 30
0.0
 11
152.11125
 21
166.7145
 31
0.0
  0
LINE
  8
0
  6
CONTINUOUS
 62
     1
 10
152.11125
 20
167.9115
 30
0.0
 11
151.71225
 21
167.9115
 31
0.0
  0
LINE
  8
0
  6
CONTINUOUS
 62
     1
 10
153.30825
 20
165.9165
 30
0.0
 11
153.30825
 21
166.7145
 31
0.0
  0
LINE
  8
0
  6
CONTINUOUS
 62
     1
 10
153.30825
 20
165.9165
 30
0.0
 11
153.70725
 21
165.9165
 31
0.0
  0
LINE
  8
0
  6
CONTINUOUS
 62
     1
 10
153.70725
 20
165.9165
 30
0.0
 11
153.70725
 21
167.5125
 31
0.0
  0
LINE
  8
0
  6
CONTINUOUS
 62
     1
 10
152.11125
 20
167.1135
 30
0.0
 11
153.30825
 21
167.1135
 31
0.0
  0
LINE
  8
0
  6
CONTINUOUS
 62
     1
 10
152.11125
 20
166.7145
 30
0.0
 11
153.30825
 21
166.7145
 31
0.0
  0
ARC
  8
0
  6
CONTINUOUS
 62
     1
 10
153.30825
 20
167.5125
 30
0.0
 40
0.399
 50
0.0
 51
90.0
  0
LINE
  8
0
  6
CONTINUOUS
 62
     1
 10
150.98075
 20
166.14925
 30
0.0
 11
151.11375
 21
166.28225
 31
0.0
  0
LINE
  8
0
  6
CONTINUOUS
 62
     1
 10
151.31325
 20
167.5125
 30
0.0
 11
151.3465
 21
167.54575
 31
0.0
  0
LINE
  8
0
  6
CONTINUOUS
 62
     1
 10
152.078
 20
165.9165
 30
0.0
 11
152.11125
 21
165.94975
 31
0.0
  0
LINE
  8
0
  6
CONTINUOUS
 62
     1
 10
153.30825
 20
167.9115
 30
0.0
 11
153.30825
 21
167.1135
 31
0.0
  0
LINE
  8
0
  6
CONTINUOUS
 62
     1
 10
153.30825
 20
167.1135
 30
0.0
 11
153.30825
 21
166.7145
 31
0.0
  0
LINE
  8
0
  6
CONTINUOUS
 62
     1
 10
152.11125
 20
166.7145
 30
0.0
 11
152.11125
 21
167.1135
 31
0.0
  0
LINE
  8
0
  6
CONTINUOUS
 62
     1
 10
152.11125
 20
167.9115
 30
0.0
 11
152.11125
 21
167.1135
 31
0.0
  0
LINE
  8
0
  6
CONTINUOUS
 62
     1
 10
153.275
 20
166.7145
 30
0.0
 11
153.30825
 21
166.74775
 31
0.0
  0
LINE
  8
0
  6
CONTINUOUS
 62
     1
 10
150.8145
 20
167.2465
 30
0.0
 11
151.28
 21
167.2465
 31
0.0
  0
ARC
  8
0
  6
CONTINUOUS
 62
     1
 10
150.349
 20
166.914
 30
0.0
 40
0.9975
 50
205.7
 51
19.653824058
  0
ARC
  8
0
  6
CONTINUOUS
 62
     1
 10
150.349
 20
166.914
 30
0.0
 40
0.5985
 50
227.3
 51
35.537677792
  0
LINE
  8
0
  6
CONTINUOUS
 62
     1
 10
153.528805549
 20
167.845
 30
0.0
 11
153.30825
 21
167.845
 31
0.0
  0
LINE
  8
0
  6
CONTINUOUS
 62
     1
 10
152.11125
 20
167.845
 30
0.0
 11
151.71225
 21
167.845
 31
0.0
  0
LINE
  8
0
  6
CONTINUOUS
 62
     1
 10
151.71225
 20
167.712
 30
0.0
 11
152.11125
 21
167.712
 31
0.0
  0
LINE
  8
0
  6
CONTINUOUS
 62
     1
 10
153.30825
 20
167.712
 30
0.0
 11
153.653794136
 21
167.712
 31
0.0
  0
LINE
  8
0
  6
CONTINUOUS
 62
     1
 10
153.701669306
 20
167.579
 30
0.0
 11
153.30825
 21
167.579
 31
0.0
  0
LINE
  8
0
  6
CONTINUOUS
 62
     1
 10
152.11125
 20
167.579
 30
0.0
 11
151.71225
 21
167.579
 31
0.0
  0
LINE
  8
0
  6
CONTINUOUS
 62
     1
 10
151.71225
 20
167.446
 30
0.0
 11
152.11125
 21
167.446
 31
0.0
  0
LINE
  8
0
  6
CONTINUOUS
 62
     1
 10
153.30825
 20
167.446
 30
0.0
 11
153.70725
 21
167.446
 31
0.0
  0
LINE
  8
0
  6
CONTINUOUS
 62
     1
 10
153.70725
 20
167.313
 30
0.0
 11
153.30825
 21
167.313
 31
0.0
  0
LINE
  8
0
  6
CONTINUOUS
 62
     1
 10
152.11125
 20
167.313
 30
0.0
 11
151.71225
 21
167.313
 31
0.0
  0
LINE
  8
0
  6
CONTINUOUS
 62
     1
 10
151.71225
 20
167.18
 30
0.0
 11
152.11125
 21
167.18
 31
0.0
  0
LINE
  8
0
  6
CONTINUOUS
 62
     1
 10
153.30825
 20
167.18
 30
0.0
 11
153.70725
 21
167.18
 31
0.0
  0
LINE
  8
0
  6
CONTINUOUS
 62
     1
 10
153.70725
 20
167.047
 30
0.0
 11
153.30825
 21
167.047
 31
0.0
  0
LINE
  8
0
  6
CONTINUOUS
 62
     1
 10
152.11125
 20
167.047
 30
0.0
 11
151.71225
 21
167.047
 31
0.0
  0
LINE
  8
0
  6
CONTINUOUS
 62
     1
 10
151.71225
 20
166.914
 30
0.0
 11
152.11125
 21
166.914
 31
0.0
  0
LINE
  8
0
  6
CONTINUOUS
 62
     1
 10
153.30825
 20
166.914
 30
0.0
 11
153.70725
 21
166.914
 31
0.0
  0
LINE
  8
0
  6
CONTINUOUS
 62
     1
 10
153.70725
 20
166.781
 30
0.0
 11
153.30825
 21
166.781
 31
0.0
  0
LINE
  8
0
  6
CONTINUOUS
 62
     1
 10
152.11125
 20
166.781
 30
0.0
 11
151.71225
 21
166.781
 31
0.0
  0
LINE
  8
0
  6
CONTINUOUS
 62
     1
 10
151.71225
 20
166.648
 30
0.0
 11
152.11125
 21
166.648
 31
0.0
  0
LINE
  8
0
  6
CONTINUOUS
 62
     1
 10
153.30825
 20
166.648
 30
0.0
 11
153.70725
 21
166.648
 31
0.0
  0
LINE
  8
0
  6
CONTINUOUS
 62
     1
 10
153.70725
 20
166.515
 30
0.0
 11
153.30825
 21
166.515
 31
0.0
  0
LINE
  8
0
  6
CONTINUOUS
 62
     1
 10
152.11125
 20
166.515
 30
0.0
 11
151.71225
 21
166.515
 31
0.0
  0
LINE
  8
0
  6
CONTINUOUS
 62
     1
 10
151.71225
 20
166.382
 30
0.0
 11
152.11125
 21
166.382
 31
0.0
  0
LINE
  8
0
  6
CONTINUOUS
 62
     1
 10
153.30825
 20
166.382
 30
0.0
 11
153.70725
 21
166.382
 31
0.0
  0
LINE
  8
0
  6
CONTINUOUS
 62
     1
 10
153.70725
 20
166.249
 30
0.0
 11
153.30825
 21
166.249
 31
0.0
  0
LINE
  8
0
  6
CONTINUOUS
 62
     1
 10
152.11125
 20
166.249
 30
0.0
 11
151.71225
 21
166.249
 31
0.0
  0
LINE
  8
0
  6
CONTINUOUS
 62
     1
 10
151.71225
 20
166.116
 30
0.0
 11
152.11125
 21
166.116
 31
0.0
  0
LINE
  8
0
  6
CONTINUOUS
 62
     1
 10
153.30825
 20
166.116
 30
0.0
 11
153.70725
 21
166.116
 31
0.0
  0
LINE
  8
0
  6
CONTINUOUS
 62
     1
 10
153.70725
 20
165.983
 30
0.0
 11
153.30825
 21
165.983
 31
0.0
  0
LINE
  8
0
  6
CONTINUOUS
 62
     1
 10
152.11125
 20
165.983
 30
0.0
 11
151.71225
 21
165.983
 31
0.0
  0
LINE
  8
0
  6
CONTINUOUS
 62
     1
 10
152.11125
 20
167.047
 30
0.0
 11
153.30825
 21
167.047
 31
0.0
  0
LINE
  8
0
  6
CONTINUOUS
 62
     1
 10
153.30825
 20
166.914
 30
0.0
 11
152.11125
 21
166.914
 31
0.0
  0
LINE
  8
0
  6
CONTINUOUS
 62
     1
 10
152.11125
 20
166.781
 30
0.0
 11
153.30825
 21
166.781
 31
0.0
  0
LINE
  8
0
  6
CONTINUOUS
 62
     1
 10
151.168055549
 20
167.845
 30
0.0
 11
149.99088654
 21
167.845
 31
0.0
  0
LINE
  8
0
  6
CONTINUOUS
 62
     1
 10
149.7505
 20
167.712
 30
0.0
 11
151.293044136
 21
167.712
 31
0.0
  0
LINE
  8
0
  6
CONTINUOUS
 62
     1
 10
151.340919306
 20
167.579
 30
0.0
 11
149.605507397
 21
167.579
 31
0.0
  0
LINE
  8
0
  6
CONTINUOUS
 62
     1
 10
149.505209594
 20
167.446
 30
0.0
 11
150.074813476
 21
167.446
 31
0.0
  0
LINE
  8
0
  6
CONTINUOUS
 62
     1
 10
149.902904438
 20
167.313
 30
0.0
 11
149.434776149
 21
167.313
 31
0.0
  0
LINE
  8
0
  6
CONTINUOUS
 62
     1
 10
149.387620652
 20
167.18
 30
0.0
 11
149.81285986
 21
167.18
 31
0.0
  0
LINE
  8
0
  6
CONTINUOUS
 62
     1
 10
150.88514014
 20
167.18
 30
0.0
 11
151.310379348
 21
167.18
 31
0.0
  0
LINE
  8
0
  6
CONTINUOUS
 62
     1
 10
151.337593572
 20
167.047
 30
0.0
 11
150.932535132
 21
167.047
 31
0.0
  0
LINE
  8
0
  6
CONTINUOUS
 62
     1
 10
149.765464868
 20
167.047
 30
0.0
 11
149.360406428
 21
167.047
 31
0.0
  0
LINE
  8
0
  6
CONTINUOUS
 62
     1
 10
149.3515
 20
166.914
 30
0.0
 11
149.7505
 21
166.914
 31
0.0
  0
LINE
  8
0
  6
CONTINUOUS
 62
     1
 10
150.9475
 20
166.914
 30
0.0
 11
151.3465
 21
166.914
 31
0.0
  0
LINE
  8
0
  6
CONTINUOUS
 62
     1
 10
151.337593572
 20
166.781
 30
0.0
 11
150.932535132
 21
166.781
 31
0.0
  0
LINE
  8
0
  6
CONTINUOUS
 62
     1
 10
149.765464868
 20
166.781
 30
0.0
 11
149.360406428
 21
166.781
 31
0.0
  0
LINE
  8
0
  6
CONTINUOUS
 62
     1
 10
149.387620652
 20
166.648
 30
0.0
 11
149.81285986
 21
166.648
 31
0.0
  0
LINE
  8
0
  6
CONTINUOUS
 62
     1
 10
150.88514014
 20
166.648
 30
0.0
 11
151.310379348
 21
166.648
 31
0.0
  0
LINE
  8
0
  6
CONTINUOUS
 62
     1
 10
151.263223851
 20
166.515
 30
0.0
 11
150.795095562
 21
166.515
 31
0.0
  0
LINE
  8
0
  6
CONTINUOUS
 62
     1
 10
149.902904438
 20
166.515
 30
0.0
 11
149.434776149
 21
166.515
 31
0.0
  0
LINE
  8
0
  6
CONTINUOUS
 62
     1
 10
149.505209594
 20
166.382
 30
0.0
 11
150.074813476
 21
166.382
 31
0.0
  0
LINE
  8
0
  6
CONTINUOUS
 62
     1
 10
150.623186524
 20
166.382
 30
0.0
 11
151.192790406
 21
166.382
 31
0.0
  0
LINE
  8
0
  6
CONTINUOUS
 62
     1
 10
151.092492603
 20
166.249
 30
0.0
 11
149.605507397
 21
166.249
 31
0.0
  0
LINE
  8
0
  6
CONTINUOUS
 62
     1
 10
149.7505
 20
166.116
 30
0.0
 11
150.9475
 21
166.116
 31
0.0
  0
LINE
  8
0
  6
CONTINUOUS
 62
     1
 10
150.70711346
 20
165.983
 30
0.0
 11
149.99088654
 21
165.983
 31
0.0
  0
LINE
  8
0
  6
CONTINUOUS
 62
     1
 10
149.216413693
 20
167.845
 30
0.0
 11
147.52275
 21
167.845
 31
0.0
  0
LINE
  8
0
  6
CONTINUOUS
 62
     1
 10
147.52275
 20
167.712
 30
0.0
 11
149.315214678
 21
167.712
 31
0.0
  0
LINE
  8
0
  6
CONTINUOUS
 62
     1
 10
149.35011217
 20
167.579
 30
0.0
 11
147.52275
 21
167.579
 31
0.0
  0
LINE
  8
0
  6
CONTINUOUS
 62
     1
 10
148.65325
 20
167.529125
 30
0.0
 11
148.25425
 21
167.529125
 31
0.0
  0
LINE
  8
0
  6
CONTINUOUS
 62
     1
 10
148.25425
 20
167.396125
 30
0.0
 11
148.65325
 21
167.396125
 31
0.0
  0
LINE
  8
0
  6
CONTINUOUS
 62
     1
 10
148.65325
 20
167.263125
 30
0.0
 11
148.25425
 21
167.263125
 31
0.0
  0
LINE
  8
0
  6
CONTINUOUS
 62
     1
 10
148.25425
 20
167.130125
 30
0.0
 11
148.65325
 21
167.130125
 31
0.0
  0
LINE
  8
0
  6
CONTINUOUS
 62
     1
 10
148.65325
 20
166.997125
 30
0.0
 11
148.25425
 21
166.997125
 31
0.0
  0
LINE
  8
0
  6
CONTINUOUS
 62
     1
 10
148.25425
 20
166.864125
 30
0.0
 11
148.65325
 21
166.864125
 31
0.0
  0
LINE
  8
0
  6
CONTINUOUS
 62
     1
 10
148.65325
 20
166.731125
 30
0.0
 11
148.25425
 21
166.731125
 31
0.0
  0
LINE
  8
0
  6
CONTINUOUS
 62
     1
 10
148.25425
 20
166.598125
 30
0.0
 11
148.65325
 21
166.598125
 31
0.0
  0
LINE
  8
0
  6
CONTINUOUS
 62
     1
 10
148.65325
 20
166.465125
 30
0.0
 11
148.25425
 21
166.465125
 31
0.0
  0
LINE
  8
0
  6
CONTINUOUS
 62
     1
 10
148.25425
 20
166.332125
 30
0.0
 11
148.65325
 21
166.332125
 31
0.0
  0
LINE
  8
0
  6
CONTINUOUS
 62
     1
 10
148.65325
 20
166.199125
 30
0.0
 11
148.25425
 21
166.199125
 31
0.0
  0
LINE
  8
0
  6
CONTINUOUS
 62
     1
 10
148.25425
 20
166.066125
 30
0.0
 11
148.65325
 21
166.066125
 31
0.0
  0
LINE
  8
0
  6
CONTINUOUS
 62
     1
 10
148.65325
 20
165.933125
 30
0.0
 11
148.25425
 21
165.933125
 31
0.0
  0
LINE
  8
0
  6
CONTINUOUS
 62
     1
 10
155.137
 20
167.5125
 30
0.0
 11
156.1345
 21
167.5125
 31
0.0
  0
LINE
  8
0
  6
CONTINUOUS
 62
     1
 10
155.7355
 20
167.9115
 30
0.0
 11
155.10375
 21
167.9115
 31
0.0
  0
ARC
  8
0
  6
CONTINUOUS
 62
     1
 10
155.7355
 20
167.5125
 30
0.0
 40
0.399
 50
0.0
 51
90.0
  0
ARC
  8
0
  6
CONTINUOUS
 62
     1
 10
155.137
 20
166.914
 30
0.0
 40
0.5985
 50
93.2
 51
227.3
  0
ARC
  8
0
  6
CONTINUOUS
 62
     1
 10
155.137
 20
166.914
 30
0.0
 40
0.9975
 50
91.9
 51
205.7
  0
LINE
  8
0
  6
CONTINUOUS
 62
     1
 10
155.76875
 20
166.14925
 30
0.0
 11
155.90175
 21
166.28225
 31
0.0
  0
LINE
  8
0
  6
CONTINUOUS
 62
     1
 10
156.10125
 20
167.5125
 30
0.0
 11
156.1345
 21
167.54575
 31
0.0
  0
LINE
  8
0
  6
CONTINUOUS
 62
     1
 10
155.6025
 20
167.2465
 30
0.0
 11
156.068
 21
167.2465
 31
0.0
  0
ARC
  8
0
  6
CONTINUOUS
 62
     1
 10
155.137
 20
166.914
 30
0.0
 40
0.9975
 50
205.7
 51
19.653824058
  0
ARC
  8
0
  6
CONTINUOUS
 62
     1
 10
155.137
 20
166.914
 30
0.0
 40
0.5985
 50
227.3
 51
35.537677792
  0
LINE
  8
0
  6
CONTINUOUS
 62
     1
 10
155.956055549
 20
167.845
 30
0.0
 11
154.77888654
 21
167.845
 31
0.0
  0
LINE
  8
0
  6
CONTINUOUS
 62
     1
 10
154.5385
 20
167.712
 30
0.0
 11
156.081044136
 21
167.712
 31
0.0
  0
LINE
  8
0
  6
CONTINUOUS
 62
     1
 10
156.128919306
 20
167.579
 30
0.0
 11
154.393507397
 21
167.579
 31
0.0
  0
LINE
  8
0
  6
CONTINUOUS
 62
     1
 10
154.293209594
 20
167.446
 30
0.0
 11
154.862813476
 21
167.446
 31
0.0
  0
LINE
  8
0
  6
CONTINUOUS
 62
     1
 10
154.690904438
 20
167.313
 30
0.0
 11
154.222776149
 21
167.313
 31
0.0
  0
LINE
  8
0
  6
CONTINUOUS
 62
     1
 10
154.175620652
 20
167.18
 30
0.0
 11
154.60085986
 21
167.18
 31
0.0
  0
LINE
  8
0
  6
CONTINUOUS
 62
     1
 10
155.67314014
 20
167.18
 30
0.0
 11
156.098379348
 21
167.18
 31
0.0
  0
LINE
  8
0
  6
CONTINUOUS
 62
     1
 10
156.125593572
 20
167.047
 30
0.0
 11
155.720535132
 21
167.047
 31
0.0
  0
LINE
  8
0
  6
CONTINUOUS
 62
     1
 10
154.553464868
 20
167.047
 30
0.0
 11
154.148406428
 21
167.047
 31
0.0
  0
LINE
  8
0
  6
CONTINUOUS
 62
     1
 10
154.1395
 20
166.914
 30
0.0
 11
154.5385
 21
166.914
 31
0.0
  0
LINE
  8
0
  6
CONTINUOUS
 62
     1
 10
155.7355
 20
166.914
 30
0.0
 11
156.1345
 21
166.914
 31
0.0
  0
LINE
  8
0
  6
CONTINUOUS
 62
     1
 10
156.125593572
 20
166.781
 30
0.0
 11
155.720535132
 21
166.781
 31
0.0
  0
LINE
  8
0
  6
CONTINUOUS
 62
     1
 10
154.553464868
 20
166.781
 30
0.0
 11
154.148406428
 21
166.781
 31
0.0
  0
LINE
  8
0
  6
CONTINUOUS
 62
     1
 10
154.175620652
 20
166.648
 30
0.0
 11
154.60085986
 21
166.648
 31
0.0
  0
LINE
  8
0
  6
CONTINUOUS
 62
     1
 10
155.67314014
 20
166.648
 30
0.0
 11
156.098379348
 21
166.648
 31
0.0
  0
LINE
  8
0
  6
CONTINUOUS
 62
     1
 10
156.051223851
 20
166.515
 30
0.0
 11
155.583095562
 21
166.515
 31
0.0
  0
LINE
  8
0
  6
CONTINUOUS
 62
     1
 10
154.690904438
 20
166.515
 30
0.0
 11
154.222776149
 21
166.515
 31
0.0
  0
LINE
  8
0
  6
CONTINUOUS
 62
     1
 10
154.293209594
 20
166.382
 30
0.0
 11
154.862813476
 21
166.382
 31
0.0
  0
LINE
  8
0
  6
CONTINUOUS
 62
     1
 10
155.411186524
 20
166.382
 30
0.0
 11
155.980790406
 21
166.382
 31
0.0
  0
LINE
  8
0
  6
CONTINUOUS
 62
     1
 10
155.880492603
 20
166.249
 30
0.0
 11
154.393507397
 21
166.249
 31
0.0
  0
LINE
  8
0
  6
CONTINUOUS
 62
     1
 10
154.5385
 20
166.116
 30
0.0
 11
155.7355
 21
166.116
 31
0.0
  0
LINE
  8
0
  6
CONTINUOUS
 62
     1
 10
155.49511346
 20
165.983
 30
0.0
 11
154.77888654
 21
165.983
 31
0.0
  0
LINE
  8
0
  6
CONTINUOUS
 62
     1
 10
131.0
 20
170.0
 30
0.0
 11
125.8
 21
155.8
 31
0.0
  0
LINE
  8
0
  6
CONTINUOUS
 62
     1
 10
131.0
 20
170.0
 30
0.0
 11
130.77721717
 21
167.509946223
 31
0.0
  0
LINE
  8
0
  6
CONTINUOUS
 62
     1
 10
131.0
 20
170.0
 30
0.0
 11
129.562037521
 21
167.954941588
 31
0.0
  0
LINE
  8
0
  6
CONTINUOUS
 62
     1
 10
324.55
 20
211.2
 30
0.0
 11
326.281870844
 21
213.002948524
 31
0.0
  0
LINE
  8
0
  6
CONTINUOUS
 62
     1
 10
324.55
 20
211.2
 30
0.0
 11
325.148369885
 21
213.627334645
 31
0.0
  0
LINE
  8
0
  6
CONTINUOUS
 62
     1
 10
324.55
 20
211.2
 30
0.0
 11
337.55
 21
234.8
 31
0.0
  0
LINE
  8
0
  6
CONTINUOUS
 62
     1
 10
337.55
 20
234.8
 30
0.0
 11
358.55
 21
234.8
 31
0.0
  0
LINE
  8
0
  6
CONTINUOUS
 62
     1
 10
157.25
 20
166.8
 30
0.0
 11
157.207950171
 21
164.300353663
 31
0.0
  0
LINE
  8
0
  6
CONTINUOUS
 62
     1
 10
157.25
 20
166.8
 30
0.0
 11
158.463406949
 21
164.614217857
 31
0.0
  0
LINE
  8
0
  6
CONTINUOUS
 62
     1
 10
157.25
 20
166.8
 30
0.0
 11
159.65
 21
157.2
 31
0.0
  0
ARC
  8
0
  6
CONTINUOUS
 62
     1
 10
119.2
 20
171.1
 30
0.0
 40
1.0
 50
180.0
 51
270.0
  0
LINE
  8
0
  6
CONTINUOUS
 62
     1
 10
119.2
 20
170.1
 30
0.0
 11
125.2
 21
170.1
 31
0.0
  0
ARC
  8
0
  6
CONTINUOUS
 62
     1
 10
125.2
 20
171.1
 30
0.0
 40
1.0
 50
270.0
 51
0.0
  0
LINE
  8
0
  6
CONTINUOUS
 62
     1
 10
126.2
 20
171.1
 30
0.0
 11
126.2
 21
177.1
 31
0.0
  0
ARC
  8
0
  6
CONTINUOUS
 62
     1
 10
125.2
 20
177.1
 30
0.0
 40
1.0
 50
0.0
 51
90.0
  0
LINE
  8
0
  6
CONTINUOUS
 62
     1
 10
125.2
 20
178.1
 30
0.0
 11
119.2
 21
178.1
 31
0.0
  0
ARC
  8
0
  6
CONTINUOUS
 62
     1
 10
119.2
 20
177.1
 30
0.0
 40
1.0
 50
90.0
 51
180.0
  0
LINE
  8
0
  6
CONTINUOUS
 62
     1
 10
118.2
 20
177.1
 30
0.0
 11
118.2
 21
171.1
 31
0.0
  0
ARC
  8
0
  6
CONTINUOUS
 62
     1
 10
129.2
 20
171.1
 30
0.0
 40
1.0
 50
180.0
 51
270.0
  0
LINE
  8
0
  6
CONTINUOUS
 62
     1
 10
129.2
 20
170.1
 30
0.0
 11
135.2
 21
170.1
 31
0.0
  0
ARC
  8
0
  6
CONTINUOUS
 62
     1
 10
135.2
 20
171.1
 30
0.0
 40
1.0
 50
270.0
 51
0.0
  0
LINE
  8
0
  6
CONTINUOUS
 62
     1
 10
136.2
 20
171.1
 30
0.0
 11
136.2
 21
177.1
 31
0.0
  0
ARC
  8
0
  6
CONTINUOUS
 62
     1
 10
135.2
 20
177.1
 30
0.0
 40
1.0
 50
0.0
 51
90.0
  0
LINE
  8
0
  6
CONTINUOUS
 62
     1
 10
135.2
 20
178.1
 30
0.0
 11
129.2
 21
178.1
 31
0.0
  0
ARC
  8
0
  6
CONTINUOUS
 62
     1
 10
129.2
 20
177.1
 30
0.0
 40
1.0
 50
90.0
 51
180.0
  0
LINE
  8
0
  6
CONTINUOUS
 62
     1
 10
128.2
 20
177.1
 30
0.0
 11
128.2
 21
171.1
 31
0.0
  0
ARC
  8
0
  6
CONTINUOUS
 62
     1
 10
140.2
 20
171.1
 30
0.0
 40
1.0
 50
180.0
 51
270.0
  0
LINE
  8
0
  6
CONTINUOUS
 62
     1
 10
140.2
 20
170.1
 30
0.0
 11
146.2
 21
170.1
 31
0.0
  0
ARC
  8
0
  6
CONTINUOUS
 62
     1
 10
146.2
 20
171.1
 30
0.0
 40
1.0
 50
270.0
 51
0.0
  0
LINE
  8
0
  6
CONTINUOUS
 62
     1
 10
147.2
 20
171.1
 30
0.0
 11
147.2
 21
177.1
 31
0.0
  0
ARC
  8
0
  6
CONTINUOUS
 62
     1
 10
146.2
 20
177.1
 30
0.0
 40
1.0
 50
0.0
 51
90.0
  0
LINE
  8
0
  6
CONTINUOUS
 62
     1
 10
146.2
 20
178.1
 30
0.0
 11
140.2
 21
178.1
 31
0.0
  0
ARC
  8
0
  6
CONTINUOUS
 62
     1
 10
140.2
 20
177.1
 30
0.0
 40
1.0
 50
90.0
 51
180.0
  0
LINE
  8
0
  6
CONTINUOUS
 62
     1
 10
139.2
 20
177.1
 30
0.0
 11
139.2
 21
171.1
 31
0.0
  0
ARC
  8
0
  6
CONTINUOUS
 62
     1
 10
149.2
 20
171.1
 30
0.0
 40
1.0
 50
180.0
 51
270.0
  0
LINE
  8
0
  6
CONTINUOUS
 62
     1
 10
149.2
 20
170.1
 30
0.0
 11
155.2
 21
170.1
 31
0.0
  0
ARC
  8
0
  6
CONTINUOUS
 62
     1
 10
155.2
 20
171.1
 30
0.0
 40
1.0
 50
270.0
 51
0.0
  0
LINE
  8
0
  6
CONTINUOUS
 62
     1
 10
156.2
 20
171.1
 30
0.0
 11
156.2
 21
177.1
 31
0.0
  0
ARC
  8
0
  6
CONTINUOUS
 62
     1
 10
155.2
 20
177.1
 30
0.0
 40
1.0
 50
0.0
 51
90.0
  0
LINE
  8
0
  6
CONTINUOUS
 62
     1
 10
155.2
 20
178.1
 30
0.0
 11
149.2
 21
178.1
 31
0.0
  0
ARC
  8
0
  6
CONTINUOUS
 62
     1
 10
149.2
 20
177.1
 30
0.0
 40
1.0
 50
90.0
 51
180.0
  0
LINE
  8
0
  6
CONTINUOUS
 62
     1
 10
148.2
 20
177.1
 30
0.0
 11
148.2
 21
171.1
 31
0.0
  0
LINE
  8
0
  6
CONTINUOUS
 62
     1
 10
145.2
 20
175.1
 30
0.0
 11
141.2
 21
175.1
 31
0.0
  0
LINE
  8
0
  6
CONTINUOUS
 62
     1
 10
141.2
 20
175.1
 30
0.0
 11
143.2
 21
172.6
 31
0.0
  0
LINE
  8
0
  6
CONTINUOUS
 62
     1
 10
143.2
 20
172.6
 30
0.0
 11
145.2
 21
175.1
 31
0.0
  0
LINE
  8
0
  6
CONTINUOUS
 62
     1
 10
150.2
 20
173.1
 30
0.0
 11
154.2
 21
173.1
 31
0.0
  0
LINE
  8
0
  6
CONTINUOUS
 62
     1
 10
154.2
 20
173.1
 30
0.0
 11
152.2
 21
175.6
 31
0.0
  0
LINE
  8
0
  6
CONTINUOUS
 62
     1
 10
152.2
 20
175.6
 30
0.0
 11
150.2
 21
173.1
 31
0.0
  0
TEXT
  8
0
  6
CONTINUOUS
 62
     2
 10
118.8
 20
172.6
 30
-0.3
 40
3.0
  1
ＭＯＤＥ
 50
0.0
 41
0.666666667
 51
0.0
  7
KANJI3
  0
TEXT
  8
0
  6
CONTINUOUS
 62
     2
 10
128.6
 20
172.6
 30
-0.3
 40
3.0
  1
ＦＵＮＣ
 50
0.0
 41
0.666666667
 51
0.0
  7
KANJI3
  0
LINE
  8
0
  6
CONTINUOUS
 62
     1
 10
141.24
 20
175.05
 30
0.0
 11
145.16
 21
175.05
 31
0.0
  0
LINE
  8
0
  6
CONTINUOUS
 62
     1
 10
145.0
 20
174.85
 30
0.0
 11
141.4
 21
174.85
 31
0.0
  0
LINE
  8
0
  6
CONTINUOUS
 62
     1
 10
141.56
 20
174.65
 30
0.0
 11
144.84
 21
174.65
 31
0.0
  0
LINE
  8
0
  6
CONTINUOUS
 62
     1
 10
144.68
 20
174.45
 30
0.0
 11
141.72
 21
174.45
 31
0.0
  0
LINE
  8
0
  6
CONTINUOUS
 62
     1
 10
141.88
 20
174.25
 30
0.0
 11
144.52
 21
174.25
 31
0.0
  0
LINE
  8
0
  6
CONTINUOUS
 62
     1
 10
144.36
 20
174.05
 30
0.0
 11
142.04
 21
174.05
 31
0.0
  0
LINE
  8
0
  6
CONTINUOUS
 62
     1
 10
142.2
 20
173.85
 30
0.0
 11
144.2
 21
173.85
 31
0.0
  0
LINE
  8
0
  6
CONTINUOUS
 62
     1
 10
144.04
 20
173.65
 30
0.0
 11
142.36
 21
173.65
 31
0.0
  0
LINE
  8
0
  6
CONTINUOUS
 62
     1
 10
142.52
 20
173.45
 30
0.0
 11
143.88
 21
173.45
 31
0.0
  0
LINE
  8
0
  6
CONTINUOUS
 62
     1
 10
143.72
 20
173.25
 30
0.0
 11
142.68
 21
173.25
 31
0.0
  0
LINE
  8
0
  6
CONTINUOUS
 62
     1
 10
142.84
 20
173.05
 30
0.0
 11
143.56
 21
173.05
 31
0.0
  0
LINE
  8
0
  6
CONTINUOUS
 62
     1
 10
143.4
 20
172.85
 30
0.0
 11
143.0
 21
172.85
 31
0.0
  0
LINE
  8
0
  6
CONTINUOUS
 62
     1
 10
143.16
 20
172.65
 30
0.0
 11
143.24
 21
172.65
 31
0.0
  0
LINE
  8
0
  6
CONTINUOUS
 62
     1
 10
152.24
 20
175.55
 30
0.0
 11
152.16
 21
175.55
 31
0.0
  0
LINE
  8
0
  6
CONTINUOUS
 62
     1
 10
152.0
 20
175.35
 30
0.0
 11
152.4
 21
175.35
 31
0.0
  0
LINE
  8
0
  6
CONTINUOUS
 62
     1
 10
152.56
 20
175.15
 30
0.0
 11
151.84
 21
175.15
 31
0.0
  0
LINE
  8
0
  6
CONTINUOUS
 62
     1
 10
151.68
 20
174.95
 30
0.0
 11
152.72
 21
174.95
 31
0.0
  0
LINE
  8
0
  6
CONTINUOUS
 62
     1
 10
152.88
 20
174.75
 30
0.0
 11
151.52
 21
174.75
 31
0.0
  0
LINE
  8
0
  6
CONTINUOUS
 62
     1
 10
151.36
 20
174.55
 30
0.0
 11
153.04
 21
174.55
 31
0.0
  0
LINE
  8
0
  6
CONTINUOUS
 62
     1
 10
153.2
 20
174.35
 30
0.0
 11
151.2
 21
174.35
 31
0.0
  0
LINE
  8
0
  6
CONTINUOUS
 62
     1
 10
151.04
 20
174.15
 30
0.0
 11
153.36
 21
174.15
 31
0.0
  0
LINE
  8
0
  6
CONTINUOUS
 62
     1
 10
153.52
 20
173.95
 30
0.0
 11
150.88
 21
173.95
 31
0.0
  0
LINE
  8
0
  6
CONTINUOUS
 62
     1
 10
150.72
 20
173.75
 30
0.0
 11
153.68
 21
173.75
 31
0.0
  0
LINE
  8
0
  6
CONTINUOUS
 62
     1
 10
153.84
 20
173.55
 30
0.0
 11
150.56
 21
173.55
 31
0.0
  0
LINE
  8
0
  6
CONTINUOUS
 62
     1
 10
150.4
 20
173.35
 30
0.0
 11
154.0
 21
173.35
 31
0.0
  0
LINE
  8
0
  6
CONTINUOUS
 62
     1
 10
154.16
 20
173.15
 30
0.0
 11
150.24
 21
173.15
 31
0.0
  0
CIRCLE
  8
0
  6
LTYPE1
 62
     1
 10
122.2
 20
174.1
 30
0.0
 40
3.5
  0
CIRCLE
  8
0
  6
LTYPE1
 62
     1
 10
132.2
 20
174.1
 30
0.0
 40
3.5
  0
CIRCLE
  8
0
  6
LTYPE1
 62
     1
 10
143.2
 20
174.1
 30
0.0
 40
3.5
  0
CIRCLE
  8
0
  6
LTYPE1
 62
     1
 10
152.2
 20
174.1
 30
0.0
 40
3.5
  0
LINE
  8
0
  6
CONTINUOUS
 62
     3
 10
197.9
 20
211.6
 30
0.0
 11
198.9
 21
211.6
 31
0.0
  0
ARC
  8
0
  6
CONTINUOUS
 62
     3
 10
197.9
 20
210.6
 30
0.0
 40
1.0
 50
90.0
 51
180.0
  0
LINE
  8
0
  6
CONTINUOUS
 62
     3
 10
197.9
 20
163.6
 30
0.0
 11
198.9
 21
163.6
 31
0.0
  0
ARC
  8
0
  6
CONTINUOUS
 62
     3
 10
197.9
 20
164.6
 30
0.0
 40
1.0
 50
180.0
 51
270.0
  0
LINE
  8
0
  6
CONTINUOUS
 62
     3
 10
196.9
 20
164.6
 30
0.0
 11
196.9
 21
210.6
 31
0.0
  0
LINE
  8
0
  6
CONTINUOUS
 62
     1
 10
272.4
 20
208.106235088
 30
0.0
 11
272.4
 21
200.69376626
 31
0.0
  0
LINE
  8
0
  6
CONTINUOUS
 62
     1
 10
272.4
 20
199.706235088
 30
0.0
 11
272.4
 21
192.29376626
 31
0.0
  0
LINE
  8
0
  6
CONTINUOUS
 62
     1
 10
272.4
 20
191.306235088
 30
0.0
 11
272.4
 21
183.89376626
 31
0.0
  0
LINE
  8
0
  6
CONTINUOUS
 62
     1
 10
272.4
 20
182.906235088
 30
0.0
 11
272.4
 21
175.49376626
 31
0.0
  0
LINE
  8
0
  6
CONTINUOUS
 62
     1
 10
272.4
 20
174.506235088
 30
0.0
 11
272.4
 21
167.09376626
 31
0.0
  0
LINE
  8
0
  6
CONTINUOUS
 62
     3
 10
279.9
 20
208.199751298
 30
0.0
 11
271.9
 21
208.100000674
 31
0.0
  0
LINE
  8
0
  6
CONTINUOUS
 62
     3
 10
271.9
 20
208.100000674
 30
0.0
 11
271.9
 21
200.700000674
 31
0.0
  0
LINE
  8
0
  6
CONTINUOUS
 62
     3
 10
271.9
 20
200.700000674
 30
0.0
 11
279.9
 21
200.600250051
 31
0.0
  0
LINE
  8
0
  6
CONTINUOUS
 62
     3
 10
279.9
 20
199.799751298
 30
0.0
 11
271.9
 21
199.700000674
 31
0.0
  0
LINE
  8
0
  6
CONTINUOUS
 62
     3
 10
271.9
 20
199.700000674
 30
0.0
 11
271.9
 21
192.300000674
 31
0.0
  0
LINE
  8
0
  6
CONTINUOUS
 62
     3
 10
271.9
 20
192.300000674
 30
0.0
 11
279.9
 21
192.200250051
 31
0.0
  0
LINE
  8
0
  6
CONTINUOUS
 62
     3
 10
279.9
 20
191.399751298
 30
0.0
 11
271.9
 21
191.300000674
 31
0.0
  0
LINE
  8
0
  6
CONTINUOUS
 62
     3
 10
271.9
 20
191.300000674
 30
0.0
 11
271.9
 21
183.900000674
 31
0.0
  0
LINE
  8
0
  6
CONTINUOUS
 62
     3
 10
271.9
 20
183.900000674
 30
0.0
 11
279.9
 21
183.800250051
 31
0.0
  0
LINE
  8
0
  6
CONTINUOUS
 62
     3
 10
279.9
 20
182.999751298
 30
0.0
 11
271.9
 21
182.900000674
 31
0.0
  0
LINE
  8
0
  6
CONTINUOUS
 62
     3
 10
271.9
 20
182.900000674
 30
0.0
 11
271.9
 21
175.500000674
 31
0.0
  0
LINE
  8
0
  6
CONTINUOUS
 62
     3
 10
271.9
 20
175.500000674
 30
0.0
 11
279.9
 21
175.400250051
 31
0.0
  0
LINE
  8
0
  6
CONTINUOUS
 62
     3
 10
279.9
 20
174.599751298
 30
0.0
 11
271.9
 21
174.500000674
 31
0.0
  0
LINE
  8
0
  6
CONTINUOUS
 62
     3
 10
271.9
 20
174.500000674
 30
0.0
 11
271.9
 21
167.100000674
 31
0.0
  0
LINE
  8
0
  6
CONTINUOUS
 62
     3
 10
271.9
 20
167.100000674
 30
0.0
 11
279.9
 21
167.000250051
 31
0.0
  0
LINE
  8
0
  6
CONTINUOUS
 62
     3
 10
198.9
 20
163.6
 30
0.0
 11
198.9
 21
211.6
 31
0.0
  0
LINE
  8
0
  6
CONTINUOUS
 62
     3
 10
198.9
 20
211.6
 30
0.0
 11
202.9
 21
211.6
 31
0.0
  0
LINE
  8
0
  6
CONTINUOUS
 62
     3
 10
202.9
 20
211.6
 30
0.0
 11
202.9
 21
163.6
 31
0.0
  0
LINE
  8
0
  6
CONTINUOUS
 62
     3
 10
202.9
 20
163.6
 30
0.0
 11
198.9
 21
163.6
 31
0.0
  0
LINE
  8
0
  6
CONTINUOUS
 62
     3
 10
202.9
 20
209.850000674
 30
0.0
 11
279.4
 21
209.850000674
 31
0.0
  0
LINE
  8
0
  6
CONTINUOUS
 62
     3
 10
279.4
 20
209.850000674
 30
0.0
 11
279.9
 21
209.350000674
 31
0.0
  0
LINE
  8
0
  6
CONTINUOUS
 62
     3
 10
279.9
 20
209.350000674
 30
0.0
 11
279.9
 21
165.850000674
 31
0.0
  0
LINE
  8
0
  6
CONTINUOUS
 62
     3
 10
279.9
 20
165.850000674
 30
0.0
 11
279.4
 21
165.350000674
 31
0.0
  0
LINE
  8
0
  6
CONTINUOUS
 62
     3
 10
279.4
 20
165.350000674
 30
0.0
 11
202.9
 21
165.350000674
 31
0.0
  0
LINE
  8
0
  6
CONTINUOUS
 62
     1
 10
215.9
 20
195.6
 30
0.0
 11
227.9
 21
195.6
 31
0.0
  0
LINE
  8
0
  6
CONTINUOUS
 62
     1
 10
215.9
 20
179.6
 30
0.0
 11
227.9
 21
179.6
 31
0.0
  0
LINE
  8
0
  6
CONTINUOUS
 62
     1
 10
215.9
 20
195.6
 30
0.0
 11
215.9
 21
179.6
 31
0.0
  0
LINE
  8
0
  6
CONTINUOUS
 62
     1
 10
227.9
 20
179.6
 30
0.0
 11
227.9
 21
195.6
 31
0.0
  0
LINE
  8
0
  6
CONTINUOUS
 62
     1
 10
216.9
 20
195.6
 30
0.0
 11
216.9
 21
179.6
 31
0.0
  0
LINE
  8
0
  6
CONTINUOUS
 62
     1
 10
217.9
 20
195.6
 30
0.0
 11
217.9
 21
179.6
 31
0.0
  0
LINE
  8
0
  6
CONTINUOUS
 62
     1
 10
218.9
 20
195.6
 30
0.0
 11
218.9
 21
179.6
 31
0.0
  0
LINE
  8
0
  6
CONTINUOUS
 62
     1
 10
219.9
 20
195.6
 30
0.0
 11
219.9
 21
179.6
 31
0.0
  0
LINE
  8
0
  6
CONTINUOUS
 62
     1
 10
221.9
 20
195.6
 30
0.0
 11
221.9
 21
179.6
 31
0.0
  0
LINE
  8
0
  6
CONTINUOUS
 62
     1
 10
222.9
 20
195.6
 30
0.0
 11
222.9
 21
179.6
 31
0.0
  0
LINE
  8
0
  6
CONTINUOUS
 62
     1
 10
223.9
 20
195.6
 30
0.0
 11
223.9
 21
179.6
 31
0.0
  0
LINE
  8
0
  6
CONTINUOUS
 62
     1
 10
224.9
 20
195.6
 30
0.0
 11
224.9
 21
179.6
 31
0.0
  0
LINE
  8
0
  6
CONTINUOUS
 62
     1
 10
225.9
 20
195.6
 30
0.0
 11
225.9
 21
179.6
 31
0.0
  0
LINE
  8
0
  6
CONTINUOUS
 62
     1
 10
226.9
 20
195.6
 30
0.0
 11
226.9
 21
179.6
 31
0.0
  0
LINE
  8
0
  6
CONTINUOUS
 62
     1
 10
220.9
 20
195.6
 30
0.0
 11
220.9
 21
179.6
 31
0.0
  0
LINE
  8
0
  6
CONTINUOUS
 62
     1
 10
275.179998367
 20
190.680327689
 30
0.0
 11
275.179998367
 21
184.555327689
 31
0.0
  0
ARC
  8
0
  6
CONTINUOUS
 62
     1
 10
275.967498367
 20
189.280327689
 30
0.0
 40
1.3125
 50
22.4
 51
79.0
  0
LINE
  8
0
  6
CONTINUOUS
 62
     1
 10
274.379998367
 20
190.717827689
 30
0.0
 11
274.379998367
 21
184.517827689
 31
0.0
  0
LINE
  8
0
  6
CONTINUOUS
 62
     1
 10
275.179998367
 20
184.517827689
 30
0.0
 11
274.379998367
 21
184.517827689
 31
0.0
  0
LINE
  8
0
  6
CONTINUOUS
 62
     1
 10
275.179998367
 20
190.717827689
 30
0.0
 11
274.379998367
 21
190.717827689
 31
0.0
  0
LINE
  8
0
  6
CONTINUOUS
 62
     1
 10
275.179998367
 20
187.176406332
 30
0.0
 11
274.379998367
 21
187.976406332
 31
0.0
  0
LINE
  8
0
  6
CONTINUOUS
 62
     1
 10
275.179998367
 20
187.459249045
 30
0.0
 11
274.379998367
 21
188.259249045
 31
0.0
  0
LINE
  8
0
  6
CONTINUOUS
 62
     1
 10
273.279998367
 20
187.017827689
 30
0.0
 11
272.879998367
 21
187.017827689
 31
0.0
  0
LINE
  8
0
  6
CONTINUOUS
 62
     1
 10
273.279998367
 20
188.217827689
 30
0.0
 11
272.879998367
 21
188.217827689
 31
0.0
  0
LINE
  8
0
  6
CONTINUOUS
 62
     1
 10
272.879998367
 20
187.017827689
 30
0.0
 11
272.879998367
 21
188.217827689
 31
0.0
  0
ARC
  8
0
  6
CONTINUOUS
 62
     1
 10
261.666362004
 20
186.940554961
 30
0.0
 40
11.613893432
 50
344.914022541
 51
0.381218739
  0
LINE
  8
0
  6
CONTINUOUS
 62
     1
 10
274.379998367
 20
187.017827689
 30
0.0
 11
273.979998367
 21
187.017827689
 31
0.0
  0
LINE
  8
0
  6
CONTINUOUS
 62
     1
 10
274.379998367
 20
188.217827689
 30
0.0
 11
273.979998367
 21
188.217827689
 31
0.0
  0
LINE
  8
0
  6
CONTINUOUS
 62
     1
 10
273.979998367
 20
187.017827689
 30
0.0
 11
273.979998367
 21
188.217827689
 31
0.0
  0
ARC
  8
0
  6
CONTINUOUS
 62
     1
 10
262.766362004
 20
188.295100416
 30
0.0
 40
11.613893432
 50
359.618781261
 51
15.085977459
  0
ARC
  8
0
  6
CONTINUOUS
 62
     1
 10
262.766362004
 20
186.940554961
 30
0.0
 40
11.613893432
 50
344.914022541
 51
0.381218739
  0
LINE
  8
0
  6
CONTINUOUS
 62
     1
 10
272.879998367
 20
183.917827689
 30
0.0
 11
273.979998367
 21
183.917827689
 31
0.0
  0
LINE
  8
0
  6
CONTINUOUS
 62
     1
 10
275.179998367
 20
184.555327689
 30
0.0
 11
276.217935174
 21
184.66694201
 31
0.0
  0
ARC
  8
0
  6
CONTINUOUS
 62
     1
 10
275.967498367
 20
185.955327689
 30
0.0
 40
1.3125
 50
281.0
 51
336.662673702
  0
LINE
  8
0
  6
CONTINUOUS
 62
     1
 10
275.179998367
 20
190.680327689
 30
0.0
 11
276.217935174
 21
190.568713367
 31
0.0
  0
ARC
  8
0
  6
CONTINUOUS
 62
     1
 10
268.833326593
 20
187.623958467
 30
0.0
 40
8.621697265
 50
345.294879551
 51
14.485060593
  0
ARC
  8
0
  6
CONTINUOUS
 62
     1
 10
261.666362004
 20
188.295100416
 30
0.0
 40
11.613893432
 50
359.618781261
 51
15.085977459
  0
LINE
  8
0
  6
CONTINUOUS
 62
     1
 10
272.879998367
 20
191.282173609
 30
0.0
 11
273.979998367
 21
191.282173609
 31
0.0
  0
LINE
  8
0
  6
CONTINUOUS
 62
     1
 10
275.179998367
 20
199.080327718
 30
0.0
 11
275.179998367
 21
192.955327718
 31
0.0
  0
ARC
  8
0
  6
CONTINUOUS
 62
     1
 10
275.967498367
 20
197.680327718
 30
0.0
 40
1.3125
 50
22.4
 51
79.0
  0
LINE
  8
0
  6
CONTINUOUS
 62
     1
 10
274.379998367
 20
199.117827718
 30
0.0
 11
274.379998367
 21
192.917827718
 31
0.0
  0
LINE
  8
0
  6
CONTINUOUS
 62
     1
 10
275.179998367
 20
192.917827718
 30
0.0
 11
274.379998367
 21
192.917827718
 31
0.0
  0
LINE
  8
0
  6
CONTINUOUS
 62
     1
 10
275.179998367
 20
199.117827718
 30
0.0
 11
274.379998367
 21
199.117827718
 31
0.0
  0
LINE
  8
0
  6
CONTINUOUS
 62
     1
 10
275.179998367
 20
195.576406362
 30
0.0
 11
274.379998367
 21
196.376406362
 31
0.0
  0
LINE
  8
0
  6
CONTINUOUS
 62
     1
 10
275.179998367
 20
195.859249074
 30
0.0
 11
274.379998367
 21
196.659249074
 31
0.0
  0
LINE
  8
0
  6
CONTINUOUS
 62
     1
 10
273.279998367
 20
195.417827718
 30
0.0
 11
272.879998367
 21
195.417827718
 31
0.0
  0
LINE
  8
0
  6
CONTINUOUS
 62
     1
 10
273.279998367
 20
196.617827718
 30
0.0
 11
272.879998367
 21
196.617827718
 31
0.0
  0
LINE
  8
0
  6
CONTINUOUS
 62
     1
 10
272.879998367
 20
195.417827718
 30
0.0
 11
272.879998367
 21
196.617827718
 31
0.0
  0
ARC
  8
0
  6
CONTINUOUS
 62
     1
 10
261.666362004
 20
195.340554991
 30
0.0
 40
11.613893432
 50
344.914022541
 51
0.381218739
  0
LINE
  8
0
  6
CONTINUOUS
 62
     1
 10
274.379998367
 20
195.417827718
 30
0.0
 11
273.979998367
 21
195.417827718
 31
0.0
  0
LINE
  8
0
  6
CONTINUOUS
 62
     1
 10
274.379998367
 20
196.617827718
 30
0.0
 11
273.979998367
 21
196.617827718
 31
0.0
  0
LINE
  8
0
  6
CONTINUOUS
 62
     1
 10
273.979998367
 20
195.417827718
 30
0.0
 11
273.979998367
 21
196.617827718
 31
0.0
  0
ARC
  8
0
  6
CONTINUOUS
 62
     1
 10
262.766362004
 20
196.695100445
 30
0.0
 40
11.613893432
 50
359.618781261
 51
15.085977459
  0
ARC
  8
0
  6
CONTINUOUS
 62
     1
 10
262.766362004
 20
195.340554991
 30
0.0
 40
11.613893432
 50
344.914022541
 51
0.381218739
  0
LINE
  8
0
  6
CONTINUOUS
 62
     1
 10
272.879998367
 20
192.317827718
 30
0.0
 11
273.979998367
 21
192.317827718
 31
0.0
  0
LINE
  8
0
  6
CONTINUOUS
 62
     1
 10
275.179998367
 20
192.955327718
 30
0.0
 11
276.217935174
 21
193.06694204
 31
0.0
  0
ARC
  8
0
  6
CONTINUOUS
 62
     1
 10
275.967498367
 20
194.355327718
 30
0.0
 40
1.3125
 50
281.0
 51
336.662673702
  0
LINE
  8
0
  6
CONTINUOUS
 62
     1
 10
275.179998367
 20
199.080327718
 30
0.0
 11
276.217935174
 21
198.968713396
 31
0.0
  0
ARC
  8
0
  6
CONTINUOUS
 62
     1
 10
268.833326593
 20
196.023958496
 30
0.0
 40
8.621697265
 50
345.294879551
 51
14.485060593
  0
ARC
  8
0
  6
CONTINUOUS
 62
     1
 10
261.666362004
 20
196.695100445
 30
0.0
 40
11.613893432
 50
359.618781261
 51
15.085977459
  0
LINE
  8
0
  6
CONTINUOUS
 62
     1
 10
272.879998367
 20
199.682173638
 30
0.0
 11
273.979998367
 21
199.682173638
 31
0.0
  0
LINE
  8
0
  6
CONTINUOUS
 62
     1
 10
275.179998367
 20
207.480327718
 30
0.0
 11
275.179998367
 21
201.355327718
 31
0.0
  0
ARC
  8
0
  6
CONTINUOUS
 62
     1
 10
275.967498367
 20
206.080327718
 30
0.0
 40
1.3125
 50
22.4
 51
79.0
  0
LINE
  8
0
  6
CONTINUOUS
 62
     1
 10
274.379998367
 20
207.517827718
 30
0.0
 11
274.379998367
 21
201.317827718
 31
0.0
  0
LINE
  8
0
  6
CONTINUOUS
 62
     1
 10
275.179998367
 20
201.317827718
 30
0.0
 11
274.379998367
 21
201.317827718
 31
0.0
  0
LINE
  8
0
  6
CONTINUOUS
 62
     1
 10
275.179998367
 20
207.517827718
 30
0.0
 11
274.379998367
 21
207.517827718
 31
0.0
  0
LINE
  8
0
  6
CONTINUOUS
 62
     1
 10
275.179998367
 20
203.976406362
 30
0.0
 11
274.379998367
 21
204.776406362
 31
0.0
  0
LINE
  8
0
  6
CONTINUOUS
 62
     1
 10
275.179998367
 20
204.259249074
 30
0.0
 11
274.379998367
 21
205.059249074
 31
0.0
  0
LINE
  8
0
  6
CONTINUOUS
 62
     1
 10
273.279998367
 20
203.817827718
 30
0.0
 11
272.879998367
 21
203.817827718
 31
0.0
  0
LINE
  8
0
  6
CONTINUOUS
 62
     1
 10
273.279998367
 20
205.017827718
 30
0.0
 11
272.879998367
 21
205.017827718
 31
0.0
  0
LINE
  8
0
  6
CONTINUOUS
 62
     1
 10
272.879998367
 20
203.817827718
 30
0.0
 11
272.879998367
 21
205.017827718
 31
0.0
  0
ARC
  8
0
  6
CONTINUOUS
 62
     1
 10
261.666362004
 20
203.740554991
 30
0.0
 40
11.613893432
 50
344.914022541
 51
0.381218739
  0
LINE
  8
0
  6
CONTINUOUS
 62
     1
 10
274.379998367
 20
203.817827718
 30
0.0
 11
273.979998367
 21
203.817827718
 31
0.0
  0
LINE
  8
0
  6
CONTINUOUS
 62
     1
 10
274.379998367
 20
205.017827718
 30
0.0
 11
273.979998367
 21
205.017827718
 31
0.0
  0
LINE
  8
0
  6
CONTINUOUS
 62
     1
 10
273.979998367
 20
203.817827718
 30
0.0
 11
273.979998367
 21
205.017827718
 31
0.0
  0
ARC
  8
0
  6
CONTINUOUS
 62
     1
 10
262.766362004
 20
205.095100445
 30
0.0
 40
11.613893432
 50
359.618781261
 51
15.085977459
  0
ARC
  8
0
  6
CONTINUOUS
 62
     1
 10
262.766362004
 20
203.740554991
 30
0.0
 40
11.613893432
 50
344.914022541
 51
0.381218739
  0
LINE
  8
0
  6
CONTINUOUS
 62
     1
 10
272.879998367
 20
200.717827718
 30
0.0
 11
273.979998367
 21
200.717827718
 31
0.0
  0
LINE
  8
0
  6
CONTINUOUS
 62
     1
 10
275.179998367
 20
201.355327718
 30
0.0
 11
276.217935174
 21
201.46694204
 31
0.0
  0
ARC
  8
0
  6
CONTINUOUS
 62
     1
 10
275.967498367
 20
202.755327718
 30
0.0
 40
1.3125
 50
281.0
 51
336.662673702
  0
LINE
  8
0
  6
CONTINUOUS
 62
     1
 10
275.179998367
 20
207.480327718
 30
0.0
 11
276.217935174
 21
207.368713396
 31
0.0
  0
ARC
  8
0
  6
CONTINUOUS
 62
     1
 10
268.833326593
 20
204.423958496
 30
0.0
 40
8.621697265
 50
345.294879551
 51
14.485060593
  0
ARC
  8
0
  6
CONTINUOUS
 62
     1
 10
261.666362004
 20
205.095100445
 30
0.0
 40
11.613893432
 50
359.618781261
 51
15.085977459
  0
LINE
  8
0
  6
CONTINUOUS
 62
     1
 10
272.879998367
 20
208.082173638
 30
0.0
 11
273.979998367
 21
208.082173638
 31
0.0
  0
LINE
  8
0
  6
CONTINUOUS
 62
     1
 10
275.179998367
 20
182.280327718
 30
0.0
 11
275.179998367
 21
176.155327718
 31
0.0
  0
ARC
  8
0
  6
CONTINUOUS
 62
     1
 10
275.967498367
 20
180.880327718
 30
0.0
 40
1.3125
 50
22.4
 51
79.0
  0
LINE
  8
0
  6
CONTINUOUS
 62
     1
 10
274.379998367
 20
182.317827718
 30
0.0
 11
274.379998367
 21
176.117827718
 31
0.0
  0
LINE
  8
0
  6
CONTINUOUS
 62
     1
 10
275.179998367
 20
176.117827718
 30
0.0
 11
274.379998367
 21
176.117827718
 31
0.0
  0
LINE
  8
0
  6
CONTINUOUS
 62
     1
 10
275.179998367
 20
182.317827718
 30
0.0
 11
274.379998367
 21
182.317827718
 31
0.0
  0
LINE
  8
0
  6
CONTINUOUS
 62
     1
 10
275.179998367
 20
178.776406362
 30
0.0
 11
274.379998367
 21
179.576406362
 31
0.0
  0
LINE
  8
0
  6
CONTINUOUS
 62
     1
 10
275.179998367
 20
179.059249074
 30
0.0
 11
274.379998367
 21
179.859249074
 31
0.0
  0
LINE
  8
0
  6
CONTINUOUS
 62
     1
 10
273.279998367
 20
178.617827718
 30
0.0
 11
272.879998367
 21
178.617827718
 31
0.0
  0
LINE
  8
0
  6
CONTINUOUS
 62
     1
 10
273.279998367
 20
179.817827718
 30
0.0
 11
272.879998367
 21
179.817827718
 31
0.0
  0
LINE
  8
0
  6
CONTINUOUS
 62
     1
 10
272.879998367
 20
178.617827718
 30
0.0
 11
272.879998367
 21
179.817827718
 31
0.0
  0
ARC
  8
0
  6
CONTINUOUS
 62
     1
 10
261.666362004
 20
178.540554991
 30
0.0
 40
11.613893432
 50
344.914022541
 51
0.381218739
  0
LINE
  8
0
  6
CONTINUOUS
 62
     1
 10
274.379998367
 20
178.617827718
 30
0.0
 11
273.979998367
 21
178.617827718
 31
0.0
  0
LINE
  8
0
  6
CONTINUOUS
 62
     1
 10
274.379998367
 20
179.817827718
 30
0.0
 11
273.979998367
 21
179.817827718
 31
0.0
  0
LINE
  8
0
  6
CONTINUOUS
 62
     1
 10
273.979998367
 20
178.617827718
 30
0.0
 11
273.979998367
 21
179.817827718
 31
0.0
  0
ARC
  8
0
  6
CONTINUOUS
 62
     1
 10
262.766362004
 20
179.895100445
 30
0.0
 40
11.613893432
 50
359.618781261
 51
15.085977459
  0
ARC
  8
0
  6
CONTINUOUS
 62
     1
 10
262.766362004
 20
178.540554991
 30
0.0
 40
11.613893432
 50
344.914022541
 51
0.381218739
  0
LINE
  8
0
  6
CONTINUOUS
 62
     1
 10
272.879998367
 20
175.517827718
 30
0.0
 11
273.979998367
 21
175.517827718
 31
0.0
  0
LINE
  8
0
  6
CONTINUOUS
 62
     1
 10
275.179998367
 20
176.155327718
 30
0.0
 11
276.217935174
 21
176.26694204
 31
0.0
  0
ARC
  8
0
  6
CONTINUOUS
 62
     1
 10
275.967498367
 20
177.555327718
 30
0.0
 40
1.3125
 50
281.0
 51
336.662673702
  0
LINE
  8
0
  6
CONTINUOUS
 62
     1
 10
275.179998367
 20
182.280327718
 30
0.0
 11
276.217935174
 21
182.168713396
 31
0.0
  0
ARC
  8
0
  6
CONTINUOUS
 62
     1
 10
268.833326593
 20
179.223958496
 30
0.0
 40
8.621697265
 50
345.294879551
 51
14.485060593
  0
ARC
  8
0
  6
CONTINUOUS
 62
     1
 10
261.666362004
 20
179.895100445
 30
0.0
 40
11.613893432
 50
359.618781261
 51
15.085977459
  0
LINE
  8
0
  6
CONTINUOUS
 62
     1
 10
272.879998367
 20
182.882173638
 30
0.0
 11
273.979998367
 21
182.882173638
 31
0.0
  0
LINE
  8
0
  6
CONTINUOUS
 62
     1
 10
275.179998367
 20
173.880327718
 30
0.0
 11
275.179998367
 21
167.755327718
 31
0.0
  0
ARC
  8
0
  6
CONTINUOUS
 62
     1
 10
275.967498367
 20
172.480327718
 30
0.0
 40
1.3125
 50
22.4
 51
79.0
  0
LINE
  8
0
  6
CONTINUOUS
 62
     1
 10
274.379998367
 20
173.917827718
 30
0.0
 11
274.379998367
 21
167.717827718
 31
0.0
  0
LINE
  8
0
  6
CONTINUOUS
 62
     1
 10
275.179998367
 20
167.717827718
 30
0.0
 11
274.379998367
 21
167.717827718
 31
0.0
  0
LINE
  8
0
  6
CONTINUOUS
 62
     1
 10
275.179998367
 20
173.917827718
 30
0.0
 11
274.379998367
 21
173.917827718
 31
0.0
  0
LINE
  8
0
  6
CONTINUOUS
 62
     1
 10
275.179998367
 20
170.376406362
 30
0.0
 11
274.379998367
 21
171.176406362
 31
0.0
  0
LINE
  8
0
  6
CONTINUOUS
 62
     1
 10
275.179998367
 20
170.659249074
 30
0.0
 11
274.379998367
 21
171.459249074
 31
0.0
  0
LINE
  8
0
  6
CONTINUOUS
 62
     1
 10
273.279998367
 20
170.217827718
 30
0.0
 11
272.879998367
 21
170.217827718
 31
0.0
  0
LINE
  8
0
  6
CONTINUOUS
 62
     1
 10
273.279998367
 20
171.417827718
 30
0.0
 11
272.879998367
 21
171.417827718
 31
0.0
  0
LINE
  8
0
  6
CONTINUOUS
 62
     1
 10
272.879998367
 20
170.217827718
 30
0.0
 11
272.879998367
 21
171.417827718
 31
0.0
  0
ARC
  8
0
  6
CONTINUOUS
 62
     1
 10
261.666362004
 20
170.140554991
 30
0.0
 40
11.613893432
 50
344.914022541
 51
0.381218739
  0
LINE
  8
0
  6
CONTINUOUS
 62
     1
 10
274.379998367
 20
170.217827718
 30
0.0
 11
273.979998367
 21
170.217827718
 31
0.0
  0
LINE
  8
0
  6
CONTINUOUS
 62
     1
 10
274.379998367
 20
171.417827718
 30
0.0
 11
273.979998367
 21
171.417827718
 31
0.0
  0
LINE
  8
0
  6
CONTINUOUS
 62
     1
 10
273.979998367
 20
170.217827718
 30
0.0
 11
273.979998367
 21
171.417827718
 31
0.0
  0
ARC
  8
0
  6
CONTINUOUS
 62
     1
 10
262.766362004
 20
171.495100445
 30
0.0
 40
11.613893432
 50
359.618781261
 51
15.085977459
  0
ARC
  8
0
  6
CONTINUOUS
 62
     1
 10
262.766362004
 20
170.140554991
 30
0.0
 40
11.613893432
 50
344.914022541
 51
0.381218739
  0
LINE
  8
0
  6
CONTINUOUS
 62
     1
 10
272.879998367
 20
167.117827718
 30
0.0
 11
273.979998367
 21
167.117827718
 31
0.0
  0
LINE
  8
0
  6
CONTINUOUS
 62
     1
 10
275.179998367
 20
167.755327718
 30
0.0
 11
276.217935174
 21
167.86694204
 31
0.0
  0
ARC
  8
0
  6
CONTINUOUS
 62
     1
 10
275.967498367
 20
169.155327718
 30
0.0
 40
1.3125
 50
281.0
 51
336.662673702
  0
LINE
  8
0
  6
CONTINUOUS
 62
     1
 10
275.179998367
 20
173.880327718
 30
0.0
 11
276.217935174
 21
173.768713396
 31
0.0
  0
ARC
  8
0
  6
CONTINUOUS
 62
     1
 10
268.833326593
 20
170.823958496
 30
0.0
 40
8.621697265
 50
345.294879551
 51
14.485060593
  0
ARC
  8
0
  6
CONTINUOUS
 62
     1
 10
261.666362004
 20
171.495100445
 30
0.0
 40
11.613893432
 50
359.618781261
 51
15.085977459
  0
LINE
  8
0
  6
CONTINUOUS
 62
     1
 10
272.879998367
 20
174.482173638
 30
0.0
 11
273.979998367
 21
174.482173638
 31
0.0
  0
LINE
  8
0
  6
CONTINUOUS
 62
     1
 10
204.1
 20
167.0
 30
0.0
 11
204.770448712
 21
164.591577586
 31
0.0
  0
LINE
  8
0
  6
CONTINUOUS
 62
     1
 10
204.1
 20
167.0
 30
0.0
 11
205.884836824
 21
165.249469363
 31
0.0
  0
LINE
  8
0
  6
CONTINUOUS
 62
     1
 10
204.1
 20
167.0
 30
0.0
 11
209.0
 21
158.7
 31
0.0
  0
LINE
  8
0
  6
CONTINUOUS
 62
     1
 10
209.0
 20
158.7
 30
0.0
 11
221.0
 21
158.7
 31
0.0
  0
LINE
  8
0
  6
CONTINUOUS
 62
     1
 10
227.5
 20
167.2
 30
0.0
 11
228.229024748
 21
164.808656671
 31
0.0
  0
LINE
  8
0
  6
CONTINUOUS
 62
     1
 10
227.5
 20
167.2
 30
0.0
 11
229.327025616
 21
165.493548302
 31
0.0
  0
LINE
  8
0
  6
CONTINUOUS
 62
     1
 10
227.5
 20
167.2
 30
0.0
 11
233.8
 21
157.1
 31
0.0
  0
LINE
  8
0
  6
CONTINUOUS
 62
     1
 10
233.8
 20
157.1
 30
0.0
 11
271.0
 21
157.1
 31
0.0
  0
LINE
  8
0
  6
CONTINUOUS
 62
     1
 10
229.36
 20
182.600000318
 30
0.0
 11
268.31
 21
182.600000318
 31
0.0
  0
LINE
  8
0
  6
CONTINUOUS
 62
     2
 10
240.596534337
 20
188.844879952
 30
0.0
 11
237.141993926
 21
188.844879952
 31
0.0
  0
LINE
  8
0
  6
CONTINUOUS
 62
     2
 10
238.370186973
 20
189.765796138
 30
0.0
 11
238.702905079
 21
191.188760179
 31
0.0
  0
LINE
  8
0
  6
CONTINUOUS
 62
     2
 10
238.702905079
 20
191.188760179
 30
0.0
 11
238.869264132
 21
191.096668561
 31
0.0
  0
LINE
  8
0
  6
CONTINUOUS
 62
     2
 10
238.869264132
 20
191.096668561
 30
0.0
 11
239.083154342
 21
191.096668561
 31
0.0
  0
LINE
  8
0
  6
CONTINUOUS
 62
     2
 10
239.083154342
 20
191.096668561
 30
0.0
 11
238.6791395
 21
190.146045401
 31
0.0
  0
LINE
  8
0
  6
CONTINUOUS
 62
     2
 10
238.6791395
 20
190.146045401
 30
0.0
 11
239.249513395
 21
190.573825823
 31
0.0
  0
LINE
  8
0
  6
CONTINUOUS
 62
     2
 10
239.249513395
 20
190.573825823
 30
0.0
 11
238.943855107
 21
189.262836483
 31
0.0
  0
LINE
  8
0
  6
CONTINUOUS
 62
     2
 10
238.943855107
 20
189.262836483
 30
0.0
 11
239.178216658
 21
189.409312453
 31
0.0
  0
LINE
  8
0
  6
CONTINUOUS
 62
     2
 10
239.178216658
 20
189.409312453
 30
0.0
 11
238.821732974
 21
188.981532031
 31
0.0
  0
LINE
  8
0
  6
CONTINUOUS
 62
     2
 10
238.821732974
 20
188.981532031
 30
0.0
 11
238.631608342
 21
189.456843611
 31
0.0
  0
LINE
  8
0
  6
CONTINUOUS
 62
     2
 10
238.631608342
 20
189.456843611
 30
0.0
 11
238.774201816
 21
189.314250137
 31
0.0
  0
LINE
  8
0
  6
CONTINUOUS
 62
     2
 10
238.774201816
 20
189.314250137
 30
0.0
 11
238.988092027
 21
190.193576559
 31
0.0
  0
LINE
  8
0
  6
CONTINUOUS
 62
     2
 10
238.988092027
 20
190.193576559
 30
0.0
 11
238.370186973
 21
189.765796138
 31
0.0
  0
LINE
  8
0
  6
CONTINUOUS
 62
     2
 10
238.869264132
 20
191.836599707
 30
0.0
 11
240.596534337
 21
188.844879952
 31
0.0
  0
LINE
  8
0
  6
CONTINUOUS
 62
     2
 10
237.141993926
 20
188.844879952
 30
0.0
 11
238.869264132
 21
191.836599707
 31
0.0
  0
LINE
  8
0
  6
CONTINUOUS
 62
     2
 10
239.075080083
 20
191.955427602
 30
0.0
 11
240.802350289
 21
188.963707847
 31
0.0
  0
LINE
  8
0
  6
CONTINUOUS
 62
     2
 10
236.936177975
 20
188.963707847
 30
0.0
 11
238.66344818
 21
191.955427602
 31
0.0
  0
ARC
  8
0
  6
CONTINUOUS
 62
     2
 10
238.869264132
 20
191.836599707
 30
0.0
 40
0.23765579
 50
30.0
 51
150.0
  0
LINE
  8
0
  6
CONTINUOUS
 62
     2
 10
238.799391796
 20
191.135347889
 30
0.0
 11
238.657159333
 21
190.993115425
 31
0.0
  0
LINE
  8
0
  6
CONTINUOUS
 62
     2
 10
238.54926293
 20
190.531665632
 30
0.0
 11
239.060158874
 21
191.042561576
 31
0.0
  0
LINE
  8
0
  6
CONTINUOUS
 62
     2
 10
238.798836803
 20
190.427686115
 30
0.0
 11
238.441366527
 21
190.070215839
 31
0.0
  0
LINE
  8
0
  6
CONTINUOUS
 62
     2
 10
238.761205015
 20
190.036500936
 30
0.0
 11
239.234610542
 21
190.509906463
 31
0.0
  0
LINE
  8
0
  6
CONTINUOUS
 62
     2
 10
239.127117071
 20
190.048859601
 30
0.0
 11
238.89688924
 21
189.818631771
 31
0.0
  0
LINE
  8
0
  6
CONTINUOUS
 62
     2
 10
238.705050093
 20
189.273239233
 30
0.0
 11
238.760131406
 21
189.328320546
 31
0.0
  0
LINE
  8
0
  6
CONTINUOUS
 62
     2
 10
238.783247079
 20
189.351436219
 30
0.0
 11
239.0196236
 21
189.58781274
 31
0.0
  0
LINE
  8
0
  6
CONTINUOUS
 62
     2
 10
239.095916432
 20
189.310552182
 30
0.0
 11
238.806065347
 21
189.020701097
 31
0.0
  0
LINE
  8
0
  6
CONTINUOUS
 62
     2
 10
237.041993926
 20
188.844879952
 30
0.0
 11
238.869264132
 21
191.936599707
 31
0.0
  0
POINT
  8
0
  6
CONTINUOUS
 62
     2
 10
238.869264132
 20
191.936599707
 30
0.0
  0
LINE
  8
0
  6
CONTINUOUS
 62
     2
 10
238.869264132
 20
191.936599707
 30
0.0
 11
240.696534337
 21
188.844879952
 31
0.0
  0
LINE
  8
0
  6
CONTINUOUS
 62
     2
 10
240.696534337
 20
188.844879952
 30
0.0
 11
240.696534337
 21
188.744879952
 31
0.0
  0
POINT
  8
0
  6
CONTINUOUS
 62
     2
 10
240.696534337
 20
188.744879952
 30
0.0
  0
LINE
  8
0
  6
CONTINUOUS
 62
     2
 10
240.696534337
 20
188.744879952
 30
0.0
 11
237.046534337
 21
188.744879952
 31
0.0
  0
POINT
  8
0
  6
CONTINUOUS
 62
     2
 10
237.046534337
 20
188.744879952
 30
0.0
  0
LINE
  8
0
  6
CONTINUOUS
 62
     2
 10
237.046534337
 20
188.744879952
 30
0.0
 11
237.046534337
 21
188.844879952
 31
0.0
  0
LINE
  8
0
  6
CONTINUOUS
 62
     2
 10
238.869264132
 20
192.036599707
 30
0.0
 11
236.941993926
 21
188.844879952
 31
0.0
  0
LINE
  8
0
  6
CONTINUOUS
 62
     2
 10
240.746534337
 20
188.844879952
 30
0.0
 11
238.869264132
 21
192.036599707
 31
0.0
  0
LINE
  8
0
  6
CONTINUOUS
 62
     2
 10
237.019264132
 20
188.694899857
 30
0.0
 11
240.719264132
 21
188.694899857
 31
0.0
  0
LINE
  8
0
  6
CONTINUOUS
 62
     2
 10
238.799391796
 20
191.135347889
 30
0.0
 11
238.657159333
 21
190.993115425
 31
0.0
  0
LINE
  8
0
  6
CONTINUOUS
 62
     2
 10
238.592421491
 20
190.71624555
 30
0.0
 11
238.972844502
 21
191.096668561
 31
0.0
  0
LINE
  8
0
  6
CONTINUOUS
 62
     2
 10
239.00789446
 20
190.919586484
 30
0.0
 11
238.527683649
 21
190.439375674
 31
0.0
  0
LINE
  8
0
  6
CONTINUOUS
 62
     2
 10
238.462945808
 20
190.162505798
 30
0.0
 11
238.851101217
 21
190.550661207
 31
0.0
  0
LINE
  8
0
  6
CONTINUOUS
 62
     2
 10
238.694307974
 20
190.18173593
 30
0.0
 11
238.398207966
 21
189.885635922
 31
0.0
  0
LINE
  8
0
  6
CONTINUOUS
 62
     2
 10
238.761205015
 20
190.036500936
 30
0.0
 11
239.234610542
 21
190.509906463
 31
0.0
  0
LINE
  8
0
  6
CONTINUOUS
 62
     2
 10
239.170114459
 20
190.233278346
 30
0.0
 11
238.942346105
 21
190.005509991
 31
0.0
  0
LINE
  8
0
  6
CONTINUOUS
 62
     2
 10
238.874160808
 20
189.72519266
 30
0.0
 11
239.105618377
 21
189.956650229
 31
0.0
  0
LINE
  8
0
  6
CONTINUOUS
 62
     2
 10
239.041122294
 20
189.680022112
 30
0.0
 11
238.805975511
 21
189.444875329
 31
0.0
  0
LINE
  8
0
  6
CONTINUOUS
 62
     2
 10
238.724776067
 20
189.363675885
 30
0.0
 11
238.684847042
 21
189.32374686
 31
0.0
  0
LINE
  8
0
  6
CONTINUOUS
 62
     2
 10
238.745456195
 20
189.172223978
 30
0.0
 11
238.976626212
 21
189.403393995
 31
0.0
  0
LINE
  8
0
  6
CONTINUOUS
 62
     2
 10
239.095916432
 20
189.310552182
 30
0.0
 11
238.806065347
 21
189.020701097
 31
0.0
  0
LINE
  8
0
  6
CONTINUOUS
 62
     2
 10
241.619272487
 20
188.981505998
 30
0.0
 11
243.364925503
 21
192.005065715
 31
0.0
  0
LINE
  8
0
  6
CONTINUOUS
 62
     2
 10
245.318584908
 20
188.861413454
 30
0.0
 11
241.827278875
 21
188.861413454
 31
0.0
  0
CIRCLE
  8
0
  6
CONTINUOUS
 62
     2
 10
243.572931891
 20
189.34178363
 30
0.0
 40
0.240185088
  0
ARC
  8
0
  6
CONTINUOUS
 62
     2
 10
243.572931891
 20
189.94224635
 30
0.0
 40
0.120092544
 50
180.0
 51
0.0
  0
LINE
  8
0
  6
CONTINUOUS
 62
     2
 10
243.693024435
 20
189.94224635
 30
0.0
 11
243.813116979
 21
191.023079246
 31
0.0
  0
ARC
  8
0
  6
CONTINUOUS
 62
     2
 10
243.572931891
 20
191.023079246
 30
0.0
 40
0.240185088
 50
0.0
 51
180.0
  0
LINE
  8
0
  6
CONTINUOUS
 62
     2
 10
243.332746803
 20
191.023079246
 30
0.0
 11
243.452839347
 21
189.94224635
 31
0.0
  0
ARC
  8
0
  6
CONTINUOUS
 62
     2
 10
243.572931891
 20
191.884973171
 30
0.0
 40
0.240185088
 50
30.0
 51
150.0
  0
LINE
  8
0
  6
CONTINUOUS
 62
     2
 10
243.572931891
 20
191.884973171
 30
0.0
 11
245.318584908
 21
188.861413454
 31
0.0
  0
LINE
  8
0
  6
CONTINUOUS
 62
     2
 10
241.827278875
 20
188.861413454
 30
0.0
 11
243.572931891
 21
191.884973171
 31
0.0
  0
LINE
  8
0
  6
CONTINUOUS
 62
     2
 10
243.780938279
 20
192.005065715
 30
0.0
 11
245.526591295
 21
188.981505998
 31
0.0
  0
LINE
  8
0
  6
CONTINUOUS
 62
     2
 10
243.403095387
 20
189.171947126
 30
0.0
 11
243.742768396
 21
189.511620135
 31
0.0
  0
LINE
  8
0
  6
CONTINUOUS
 62
     2
 10
243.58602333
 20
191.26290729
 30
0.0
 11
243.334091651
 21
191.010975612
 31
0.0
  0
LINE
  8
0
  6
CONTINUOUS
 62
     2
 10
243.369446991
 20
190.69277756
 30
0.0
 11
243.793896033
 21
191.117226602
 31
0.0
  0
LINE
  8
0
  6
CONTINUOUS
 62
     2
 10
243.783093843
 20
190.752871022
 30
0.0
 11
243.40480233
 21
190.374579509
 31
0.0
  0
LINE
  8
0
  6
CONTINUOUS
 62
     2
 10
243.440157669
 20
190.056381457
 30
0.0
 11
243.738899669
 21
190.355123458
 31
0.0
  0
LINE
  8
0
  6
CONTINUOUS
 62
     2
 10
243.694705496
 20
189.957375893
 30
0.0
 11
243.560164054
 21
189.822834452
 31
0.0
  0
LINE
  8
0
  6
CONTINUOUS
 62
     2
 10
243.403095387
 20
189.171947126
 30
0.0
 11
243.742768396
 21
189.511620135
 31
0.0
  0
LINE
  8
0
  6
CONTINUOUS
 62
     2
 10
243.645777854
 20
191.251951136
 30
0.0
 11
243.341162719
 21
190.947336001
 31
0.0
  0
LINE
  8
0
  6
CONTINUOUS
 62
     2
 10
243.362375923
 20
190.75641717
 30
0.0
 11
243.76848857
 21
191.162529818
 31
0.0
  0
LINE
  8
0
  6
CONTINUOUS
 62
     2
 10
243.809610347
 20
190.991519561
 30
0.0
 11
243.383589126
 21
190.565498339
 31
0.0
  0
LINE
  8
0
  6
CONTINUOUS
 62
     2
 10
243.40480233
 20
190.374579509
 30
0.0
 11
243.783093843
 21
190.752871022
 31
0.0
  0
LINE
  8
0
  6
CONTINUOUS
 62
     2
 10
243.756577339
 20
190.514222484
 30
0.0
 11
243.426015533
 21
190.183660678
 31
0.0
  0
LINE
  8
0
  6
CONTINUOUS
 62
     2
 10
243.447228736
 20
189.992741847
 30
0.0
 11
243.730060835
 21
190.275573945
 31
0.0
  0
LINE
  8
0
  6
CONTINUOUS
 62
     2
 10
243.70354433
 20
190.036925406
 30
0.0
 11
243.507902754
 21
189.84128383
 31
0.0
  0
LINE
  8
0
  6
CONTINUOUS
 62
     2
 10
243.334221846
 20
189.315205619
 30
0.0
 11
243.599509902
 21
189.580493676
 31
0.0
  0
LINE
  8
0
  6
CONTINUOUS
 62
     2
 10
243.742768396
 20
189.511620135
 30
0.0
 11
243.403095387
 21
189.171947126
 31
0.0
  0
LINE
  8
0
  6
CONTINUOUS
 62
     2
 10
243.54635388
 20
189.103073585
 30
0.0
 11
243.811641937
 21
189.368361641
 31
0.0
  0
LINE
  8
0
  6
CONTINUOUS
 62
     2
 10
241.727278875
 20
188.811413454
 30
0.0
 11
243.572931891
 21
191.984973171
 31
0.0
  0
POINT
  8
0
  6
CONTINUOUS
 62
     2
 10
243.572931891
 20
191.984973171
 30
0.0
  0
LINE
  8
0
  6
CONTINUOUS
 62
     2
 10
243.572931891
 20
192.084973171
 30
0.0
 11
241.627278875
 21
188.811413454
 31
0.0
  0
LINE
  8
0
  6
CONTINUOUS
 62
     2
 10
241.627278875
 20
188.811413454
 30
0.0
 11
245.468584908
 21
188.811413454
 31
0.0
  0
POINT
  8
0
  6
CONTINUOUS
 62
     2
 10
245.468584908
 20
188.811413454
 30
0.0
  0
LINE
  8
0
  6
CONTINUOUS
 62
     2
 10
245.468584908
 20
188.811413454
 30
0.0
 11
243.572931891
 21
192.084973171
 31
0.0
  0
LINE
  8
0
  6
CONTINUOUS
 62
     2
 10
243.572931891
 20
191.984973171
 30
0.0
 11
245.422931891
 21
188.784973171
 31
0.0
  0
LINE
  8
0
  6
CONTINUOUS
 62
     2
 10
245.422931891
 20
188.684973171
 30
0.0
 11
241.722931891
 21
188.684973171
 31
0.0
  0
LINE
  8
0
  6
CONTINUOUS
 62
     2
 10
241.672931891
 20
188.734973171
 30
0.0
 11
245.472931891
 21
188.734973171
 31
0.0
  0
LINE
  8
0
  6
CONTINUOUS
 62
     2
 10
245.522931891
 20
188.834973171
 30
0.0
 11
243.672931891
 21
192.034973171
 31
0.0
  0
LINE
  8
0
  6
CONTINUOUS
 62
     2
 10
243.472931891
 20
192.034973171
 30
0.0
 11
241.622931891
 21
188.884973171
 31
0.0
  0
ARC
  8
0
  6
CONTINUOUS
 62
     2
 10
240.596534337
 20
188.844879952
 30
0.0
 40
0.23765579
 50
270.0
 51
30.0
  0
LINE
  8
0
  6
CONTINUOUS
 62
     2
 10
240.596534337
 20
188.607224162
 30
0.0
 11
237.141993926
 21
188.607224162
 31
0.0
  0
ARC
  8
0
  6
CONTINUOUS
 62
     2
 10
237.138780807
 20
188.855831091
 30
0.0
 40
0.23765579
 50
150.0
 51
270.0
  0
ARC
  8
0
  6
CONTINUOUS
 62
     2
 10
241.827278875
 20
188.861413454
 30
0.0
 40
0.240185088
 50
150.0
 51
270.0
  0
LINE
  8
0
  6
CONTINUOUS
 62
     2
 10
245.318584908
 20
188.621228366
 30
0.0
 11
241.827278875
 21
188.621228366
 31
0.0
  0
ARC
  8
0
  6
CONTINUOUS
 62
     2
 10
245.318584908
 20
188.861413454
 30
0.0
 40
0.240185088
 50
270.0
 51
30.0
  0
TEXT
  8
0
  6
CONTINUOUS
 62
     1
 10
233.855
 20
205.500000318
 30
0.0
 40
1.75
  1
ＮＯ
 50
0.0
 41
0.857142857
 51
0.0
  7
KANJI4
  0
TEXT
  8
0
  6
CONTINUOUS
 62
     1
 10
246.955
 20
205.450000318
 30
0.0
 40
1.75
  1
Ｃ
 50
0.0
 41
0.857142857
 51
0.0
  7
KANJI4
  0
LINE
  8
0
  6
CONTINUOUS
 62
     2
 10
229.36
 20
177.600000318
 30
0.0
 11
268.4
 21
177.600000318
 31
0.0
  0
LINE
  8
0
  6
CONTINUOUS
 62
     2
 10
229.36
 20
182.600000318
 30
0.0
 11
268.31
 21
182.600000318
 31
0.0
  0
LINE
  8
0
  6
CONTINUOUS
 62
     2
 10
239.51
 20
177.600000318
 30
0.0
 11
239.51
 21
172.650000318
 31
0.0
  0
LINE
  8
0
  6
CONTINUOUS
 62
     2
 10
229.46
 20
172.600000318
 30
0.0
 11
268.4
 21
172.600000318
 31
0.0
  0
LINE
  8
0
  6
LTYPE2
 62
     1
 10
265.81
 20
186.650000318
 30
0.0
 11
265.81
 21
197.650000318
 31
0.0
  0
LINE
  8
0
  6
LTYPE2
 62
     1
 10
258.31
 20
197.700000318
 30
0.0
 11
258.31
 21
186.650000318
 31
0.0
  0
LINE
  8
0
  6
LTYPE2
 62
     1
 10
260.81
 20
186.650000318
 30
0.0
 11
260.81
 21
197.650000318
 31
0.0
  0
LINE
  8
0
  6
CONTINUOUS
 62
     1
 10
263.31
 20
197.650000318
 30
0.0
 11
263.31
 21
186.650000318
 31
0.0
  0
LINE
  8
0
  6
CONTINUOUS
 62
     3
 10
264.627171258
 20
184.887737434
 30
0.0
 11
264.62501612
 21
184.889892572
 31
0.0
  0
LINE
  8
0
  6
CONTINUOUS
 62
     3
 10
264.961289039
 20
183.047932192
 30
0.0
 11
265.067990248
 21
183.16217984
 31
0.0
  0
LINE
  8
0
  6
CONTINUOUS
 62
     3
 10
265.067990248
 20
183.16217984
 30
0.0
 11
265.126192793
 21
183.326004872
 31
0.0
  0
LINE
  8
0
  6
CONTINUOUS
 62
     3
 10
265.126192793
 20
183.326004872
 30
0.0
 11
265.117569937
 21
183.452106928
 31
0.0
  0
LINE
  8
0
  6
CONTINUOUS
 62
     3
 10
259.907486757
 20
184.450149998
 30
0.0
 11
259.923653747
 21
184.438293284
 31
0.0
  0
LINE
  8
0
  6
CONTINUOUS
 62
     3
 10
259.923653747
 20
184.438293284
 30
0.0
 11
260.031433676
 21
184.347759065
 31
0.0
  0
LINE
  8
0
  6
CONTINUOUS
 62
     3
 10
260.031433676
 20
184.347759065
 30
0.0
 11
260.172626306
 21
184.302491956
 31
0.0
  0
LINE
  8
0
  6
CONTINUOUS
 62
     3
 10
259.90533162
 20
184.453383857
 30
0.0
 11
260.028202123
 21
184.349914203
 31
0.0
  0
LINE
  8
0
  6
CONTINUOUS
 62
     3
 10
260.028202123
 20
184.349914203
 30
0.0
 11
260.174781444
 21
184.303568372
 31
0.0
  0
LINE
  8
0
  6
CONTINUOUS
 62
     3
 10
264.960210318
 20
183.047932192
 30
0.0
 11
265.066913831
 21
183.163258561
 31
0.0
  0
LINE
  8
0
  6
CONTINUOUS
 62
     3
 10
265.066913831
 20
183.163258561
 30
0.0
 11
265.125114071
 21
183.328160009
 31
0.0
  0
LINE
  8
0
  6
CONTINUOUS
 62
     3
 10
265.125114071
 20
183.328160009
 30
0.0
 11
265.117569937
 21
183.451030512
 31
0.0
  0
LINE
  8
0
  6
CONTINUOUS
 62
     3
 10
260.161034737
 20
184.306208274
 30
0.0
 11
260.162331341
 21
184.307504878
 31
0.0
  0
LINE
  8
0
  6
CONTINUOUS
 62
     3
 10
262.959021904
 20
186.452254302
 30
0.0
 11
263.002581125
 21
186.495813523
 31
0.0
  0
LINE
  8
0
  6
CONTINUOUS
 62
     1
 10
267.083474931
 20
184.564397646
 30
0.0
 11
266.906716769
 21
184.525595949
 31
0.0
  0
LINE
  8
0
  6
CONTINUOUS
 62
     1
 10
266.906716769
 20
184.525595949
 30
0.0
 11
266.776302132
 21
184.438293284
 31
0.0
  0
LINE
  8
0
  6
CONTINUOUS
 62
     1
 10
266.776302132
 20
184.438293284
 30
0.0
 11
266.703011319
 21
184.299258097
 31
0.0
  0
LINE
  8
0
  6
CONTINUOUS
 62
     1
 10
266.703011319
 20
184.299258097
 30
0.0
 11
266.680378916
 21
184.203334882
 31
0.0
  0
LINE
  8
0
  6
CONTINUOUS
 62
     1
 10
266.680378916
 20
184.203334882
 30
0.0
 11
266.687923051
 21
184.026574414
 31
0.0
  0
LINE
  8
0
  6
CONTINUOUS
 62
     1
 10
266.687923051
 20
184.026574414
 30
0.0
 11
266.749357149
 21
183.876761234
 31
0.0
  0
LINE
  8
0
  6
CONTINUOUS
 62
     1
 10
266.749357149
 20
183.876761234
 30
0.0
 11
266.930427892
 21
183.711857481
 31
0.0
  0
LINE
  8
0
  6
CONTINUOUS
 62
     1
 10
266.930427892
 20
183.711857481
 30
0.0
 11
267.168622459
 21
183.566354576
 31
0.0
  0
LINE
  8
0
  6
CONTINUOUS
 62
     1
 10
267.168622459
 20
183.566354576
 30
0.0
 11
267.24083455
 21
183.458574646
 31
0.0
  0
LINE
  8
0
  6
CONTINUOUS
 62
     1
 10
267.24083455
 20
183.458574646
 30
0.0
 11
267.24083455
 21
183.362651431
 31
0.0
  0
LINE
  8
0
  6
CONTINUOUS
 62
     1
 10
267.24083455
 20
183.362651431
 30
0.0
 11
267.218199843
 21
183.308761466
 31
0.0
  0
LINE
  8
0
  6
CONTINUOUS
 62
     1
 10
267.218199843
 20
183.308761466
 30
0.0
 11
267.156765744
 21
183.262415635
 31
0.0
  0
LINE
  8
0
  6
CONTINUOUS
 62
     1
 10
267.156765744
 20
183.262415635
 30
0.0
 11
267.083474931
 21
183.262415635
 31
0.0
  0
LINE
  8
0
  6
CONTINUOUS
 62
     1
 10
267.083474931
 20
183.262415635
 30
0.0
 11
267.014496698
 21
183.304448886
 31
0.0
  0
LINE
  8
0
  6
CONTINUOUS
 62
     1
 10
267.014496698
 20
183.304448886
 30
0.0
 11
266.984317857
 21
183.377739699
 31
0.0
  0
LINE
  8
0
  6
CONTINUOUS
 62
     1
 10
266.984317857
 20
183.377739699
 30
0.0
 11
266.984317857
 21
183.527552879
 31
0.0
  0
LINE
  8
0
  6
CONTINUOUS
 62
     1
 10
266.984317857
 20
183.527552879
 30
0.0
 11
266.657744209
 21
183.523242604
 31
0.0
  0
LINE
  8
0
  6
CONTINUOUS
 62
     1
 10
266.657744209
 20
183.523242604
 30
0.0
 11
266.665288343
 21
183.286126759
 31
0.0
  0
LINE
  8
0
  6
CONTINUOUS
 62
     1
 10
266.665288343
 20
183.286126759
 30
0.0
 11
266.707323899
 21
183.178346829
 31
0.0
  0
LINE
  8
0
  6
CONTINUOUS
 62
     1
 10
266.707323899
 20
183.178346829
 30
0.0
 11
266.807559694
 21
183.074877175
 31
0.0
  0
LINE
  8
0
  6
CONTINUOUS
 62
     1
 10
266.807559694
 20
183.074877175
 30
0.0
 11
266.937972026
 21
183.013443076
 31
0.0
  0
LINE
  8
0
  6
CONTINUOUS
 62
     1
 10
266.937972026
 20
183.013443076
 30
0.0
 11
267.072696938
 21
182.989731952
 31
0.0
  0
LINE
  8
0
  6
CONTINUOUS
 62
     1
 10
267.072696938
 20
182.989731952
 30
0.0
 11
267.260235399
 21
183.00482022
 31
0.0
  0
LINE
  8
0
  6
CONTINUOUS
 62
     1
 10
267.260235399
 20
183.00482022
 30
0.0
 11
267.398191865
 21
183.063022765
 31
0.0
  0
LINE
  8
0
  6
CONTINUOUS
 62
     1
 10
267.398191865
 20
183.063022765
 30
0.0
 11
267.521062367
 21
183.205291811
 31
0.0
  0
LINE
  8
0
  6
CONTINUOUS
 62
     1
 10
267.521062367
 20
183.205291811
 30
0.0
 11
267.567408198
 21
183.365882985
 31
0.0
  0
LINE
  8
0
  6
CONTINUOUS
 62
     1
 10
267.567408198
 20
183.365882985
 30
0.0
 11
267.559861759
 21
183.569588434
 31
0.0
  0
LINE
  8
0
  6
CONTINUOUS
 62
     1
 10
267.559861759
 20
183.569588434
 30
0.0
 11
267.517828508
 21
183.696769212
 31
0.0
  0
LINE
  8
0
  6
CONTINUOUS
 62
     1
 10
267.517828508
 20
183.696769212
 30
0.0
 11
267.40681472
 21
183.822871269
 31
0.0
  0
LINE
  8
0
  6
CONTINUOUS
 62
     1
 10
267.40681472
 20
183.822871269
 30
0.0
 11
267.045751956
 21
184.06106353
 31
0.0
  0
LINE
  8
0
  6
CONTINUOUS
 62
     1
 10
267.045751956
 20
184.06106353
 30
0.0
 11
267.002639984
 21
184.141898478
 31
0.0
  0
LINE
  8
0
  6
CONTINUOUS
 62
     1
 10
267.002639984
 20
184.141898478
 30
0.0
 11
267.002639984
 21
184.203334882
 31
0.0
  0
LINE
  8
0
  6
CONTINUOUS
 62
     1
 10
267.002639984
 20
184.203334882
 30
0.0
 11
267.045751956
 21
184.27662339
 31
0.0
  0
LINE
  8
0
  6
CONTINUOUS
 62
     1
 10
267.045751956
 20
184.27662339
 30
0.0
 11
267.087787511
 21
184.296024238
 31
0.0
  0
LINE
  8
0
  6
CONTINUOUS
 62
     1
 10
267.087787511
 20
184.296024238
 30
0.0
 11
267.176166593
 21
184.284169829
 31
0.0
  0
LINE
  8
0
  6
CONTINUOUS
 62
     1
 10
267.176166593
 20
184.284169829
 30
0.0
 11
267.210655709
 21
184.253990987
 31
0.0
  0
LINE
  8
0
  6
CONTINUOUS
 62
     1
 10
267.210655709
 20
184.253990987
 30
0.0
 11
267.24083455
 21
184.165611906
 31
0.0
  0
LINE
  8
0
  6
CONTINUOUS
 62
     1
 10
267.24083455
 20
184.165611906
 30
0.0
 11
267.245144826
 21
184.080464379
 31
0.0
  0
LINE
  8
0
  6
CONTINUOUS
 62
     1
 10
267.245144826
 20
184.080464379
 30
0.0
 11
267.567408198
 21
184.080464379
 31
0.0
  0
LINE
  8
0
  6
CONTINUOUS
 62
     1
 10
267.567408198
 20
184.080464379
 30
0.0
 11
267.559861759
 21
184.222733425
 31
0.0
  0
LINE
  8
0
  6
CONTINUOUS
 62
     1
 10
267.559861759
 20
184.222733425
 30
0.0
 11
267.510284374
 21
184.365004776
 31
0.0
  0
LINE
  8
0
  6
CONTINUOUS
 62
     1
 10
267.510284374
 20
184.365004776
 30
0.0
 11
267.410048579
 21
184.476016259
 31
0.0
  0
LINE
  8
0
  6
CONTINUOUS
 62
     1
 10
267.410048579
 20
184.476016259
 30
0.0
 11
267.260235399
 21
184.549307073
 31
0.0
  0
LINE
  8
0
  6
CONTINUOUS
 62
     1
 10
267.260235399
 20
184.549307073
 30
0.0
 11
267.083474931
 21
184.564397646
 31
0.0
  0
LINE
  8
0
  6
CONTINUOUS
 62
     1
 10
265.559467649
 20
184.525595949
 30
0.0
 11
265.567011783
 21
183.338938002
 31
0.0
  0
LINE
  8
0
  6
CONTINUOUS
 62
     1
 10
265.567011783
 20
183.338938002
 30
0.0
 11
265.586412631
 21
183.247325062
 31
0.0
  0
LINE
  8
0
  6
CONTINUOUS
 62
     1
 10
265.586412631
 20
183.247325062
 30
0.0
 11
265.666168857
 21
183.11691273
 31
0.0
  0
LINE
  8
0
  6
CONTINUOUS
 62
     1
 10
265.666168857
 20
183.11691273
 30
0.0
 11
265.773948787
 21
183.043621917
 31
0.0
  0
LINE
  8
0
  6
CONTINUOUS
 62
     1
 10
265.773948787
 20
183.043621917
 30
0.0
 11
265.935618681
 21
182.997276086
 31
0.0
  0
LINE
  8
0
  6
CONTINUOUS
 62
     1
 10
265.935618681
 20
182.997276086
 30
0.0
 11
266.123157141
 21
183.001588666
 31
0.0
  0
LINE
  8
0
  6
CONTINUOUS
 62
     1
 10
266.123157141
 20
183.001588666
 30
0.0
 11
266.235247346
 21
183.02098721
 31
0.0
  0
LINE
  8
0
  6
CONTINUOUS
 62
     1
 10
266.235247346
 20
183.02098721
 30
0.0
 11
266.353805269
 21
183.082423614
 31
0.0
  0
LINE
  8
0
  6
CONTINUOUS
 62
     1
 10
266.353805269
 20
183.082423614
 30
0.0
 11
266.454041064
 21
183.212835946
 31
0.0
  0
LINE
  8
0
  6
CONTINUOUS
 62
     1
 10
266.454041064
 20
183.212835946
 30
0.0
 11
266.500386895
 21
183.397140547
 31
0.0
  0
LINE
  8
0
  6
CONTINUOUS
 62
     1
 10
266.500386895
 20
183.397140547
 30
0.0
 11
266.496074315
 21
184.525595949
 31
0.0
  0
LINE
  8
0
  6
CONTINUOUS
 62
     1
 10
266.496074315
 20
184.525595949
 30
0.0
 11
266.150102124
 21
184.52236209
 31
0.0
  0
LINE
  8
0
  6
CONTINUOUS
 62
     1
 10
266.150102124
 20
184.52236209
 30
0.0
 11
266.150102124
 21
183.370195565
 31
0.0
  0
LINE
  8
0
  6
CONTINUOUS
 62
     1
 10
266.150102124
 20
183.370195565
 30
0.0
 11
266.100522434
 21
183.286126759
 31
0.0
  0
LINE
  8
0
  6
CONTINUOUS
 62
     1
 10
266.100522434
 20
183.286126759
 30
0.0
 11
266.058489184
 21
183.262415635
 31
0.0
  0
LINE
  8
0
  6
CONTINUOUS
 62
     1
 10
266.058489184
 20
183.262415635
 30
0.0
 11
265.992742505
 21
183.262415635
 31
0.0
  0
LINE
  8
0
  6
CONTINUOUS
 62
     1
 10
265.992742505
 20
183.262415635
 30
0.0
 11
265.920530413
 21
183.3163056
 31
0.0
  0
LINE
  8
0
  6
CONTINUOUS
 62
     1
 10
265.920530413
 20
183.3163056
 30
0.0
 11
265.904363423
 21
183.377739699
 31
0.0
  0
LINE
  8
0
  6
CONTINUOUS
 62
     1
 10
265.904363423
 20
183.377739699
 30
0.0
 11
265.901129564
 21
184.525595949
 31
0.0
  0
LINE
  8
0
  6
CONTINUOUS
 62
     1
 10
265.901129564
 20
184.525595949
 30
0.0
 11
265.559467649
 21
184.525595949
 31
0.0
  0
LINE
  8
0
  6
CONTINUOUS
 62
     1
 10
265.653190211
 20
184.525595949
 30
0.0
 11
265.560059722
 21
184.432465461
 31
0.0
  0
LINE
  8
0
  6
CONTINUOUS
 62
     1
 10
265.561089349
 20
184.270509803
 30
0.0
 11
265.816175495
 21
184.525595949
 31
0.0
  0
LINE
  8
0
  6
CONTINUOUS
 62
     1
 10
265.901348784
 20
184.447783953
 30
0.0
 11
265.562118977
 21
184.108554146
 31
0.0
  0
LINE
  8
0
  6
CONTINUOUS
 62
     1
 10
265.563148604
 20
183.946598488
 30
0.0
 11
265.901806673
 21
184.285256558
 31
0.0
  0
LINE
  8
0
  6
CONTINUOUS
 62
     1
 10
266.303329734
 20
184.523794334
 30
0.0
 11
266.150102124
 21
184.370566724
 31
0.0
  0
LINE
  8
0
  6
CONTINUOUS
 62
     1
 10
265.902264562
 20
184.122729162
 30
0.0
 11
265.564178231
 21
183.784642831
 31
0.0
  0
LINE
  8
0
  6
CONTINUOUS
 62
     1
 10
265.565207858
 20
183.622687173
 30
0.0
 11
265.902722451
 21
183.960201766
 31
0.0
  0
LINE
  8
0
  6
CONTINUOUS
 62
     1
 10
266.150102124
 20
184.207581439
 30
0.0
 11
266.467852843
 21
184.525332158
 31
0.0
  0
LINE
  8
0
  6
CONTINUOUS
 62
     1
 10
266.496588381
 20
184.391082411
 30
0.0
 11
266.150102124
 21
184.044596154
 31
0.0
  0
LINE
  8
0
  6
CONTINUOUS
 62
     1
 10
265.90318034
 20
183.797674371
 30
0.0
 11
265.566237485
 21
183.460731515
 31
0.0
  0
LINE
  8
0
  6
CONTINUOUS
 62
     1
 10
265.574075169
 20
183.305583915
 30
0.0
 11
265.903638229
 21
183.635146975
 31
0.0
  0
LINE
  8
0
  6
CONTINUOUS
 62
     1
 10
266.150102124
 20
183.88161087
 30
0.0
 11
266.497208885
 21
184.228717631
 31
0.0
  0
LINE
  8
0
  6
CONTINUOUS
 62
     1
 10
266.497829389
 20
184.06635285
 30
0.0
 11
266.150102124
 21
183.718625585
 31
0.0
  0
LINE
  8
0
  6
CONTINUOUS
 62
     1
 10
265.904096118
 20
183.472619579
 30
0.0
 11
265.62147304
 21
183.189996501
 31
0.0
  0
LINE
  8
0
  6
CONTINUOUS
 62
     1
 10
265.693076941
 20
183.098615118
 30
0.0
 11
265.918496445
 21
183.324034621
 31
0.0
  0
LINE
  8
0
  6
CONTINUOUS
 62
     1
 10
266.150102124
 20
183.5556403
 30
0.0
 11
266.498449893
 21
183.903988069
 31
0.0
  0
LINE
  8
0
  6
CONTINUOUS
 62
     1
 10
266.499070397
 20
183.741623289
 30
0.0
 11
266.150102124
 21
183.392655016
 31
0.0
  0
LINE
  8
0
  6
CONTINUOUS
 62
     1
 10
266.019862743
 20
183.262415635
 30
0.0
 11
265.795026645
 21
183.037579537
 31
0.0
  0
LINE
  8
0
  6
CONTINUOUS
 62
     1
 10
265.921698866
 20
183.001266473
 30
0.0
 11
266.499690901
 21
183.579258508
 31
0.0
  0
LINE
  8
0
  6
CONTINUOUS
 62
     1
 10
266.500311405
 20
183.416893728
 30
0.0
 11
266.08410839
 21
183.000690713
 31
0.0
  0
LINE
  8
0
  6
CONTINUOUS
 62
     1
 10
266.301961025
 20
183.055558063
 30
0.0
 11
266.436775665
 21
183.190372703
 31
0.0
  0
LINE
  8
0
  6
CONTINUOUS
 62
     1
 10
266.835564869
 20
184.477965173
 30
0.0
 11
266.754462556
 21
184.396862859
 31
0.0
  0
LINE
  8
0
  6
CONTINUOUS
 62
     1
 10
266.682161177
 20
184.161576195
 30
0.0
 11
267.084864035
 21
184.564279054
 31
0.0
  0
LINE
  8
0
  6
CONTINUOUS
 62
     1
 10
267.235029262
 20
184.551458996
 30
0.0
 11
266.694385457
 21
184.010815191
 31
0.0
  0
LINE
  8
0
  6
CONTINUOUS
 62
     1
 10
266.741784193
 20
183.895228643
 30
0.0
 11
267.002639984
 21
184.156084433
 31
0.0
  0
LINE
  8
0
  6
CONTINUOUS
 62
     1
 10
267.136099619
 20
184.289544068
 30
0.0
 11
267.35130838
 21
184.504752829
 31
0.0
  0
LINE
  8
0
  6
CONTINUOUS
 62
     1
 10
267.445876999
 20
184.436336163
 30
0.0
 11
267.224115289
 21
184.214574454
 31
0.0
  0
LINE
  8
0
  6
CONTINUOUS
 62
     1
 10
267.060726014
 20
184.051185179
 30
0.0
 11
266.821029248
 21
183.811488413
 31
0.0
  0
LINE
  8
0
  6
CONTINUOUS
 62
     1
 10
266.658916702
 20
183.486390582
 30
0.0
 11
266.696277302
 21
183.523751182
 31
0.0
  0
LINE
  8
0
  6
CONTINUOUS
 62
     1
 10
266.906329948
 20
183.733803828
 30
0.0
 11
267.158927806
 21
183.986401686
 31
0.0
  0
LINE
  8
0
  6
CONTINUOUS
 62
     1
 10
267.252990499
 20
184.080464379
 30
0.0
 11
267.517325397
 21
184.344799277
 31
0.0
  0
LINE
  8
0
  6
CONTINUOUS
 62
     1
 10
267.559443914
 20
184.223932509
 30
0.0
 11
267.415975784
 21
184.080464379
 31
0.0
  0
LINE
  8
0
  6
CONTINUOUS
 62
     1
 10
267.257129598
 20
183.921618194
 30
0.0
 11
267.003023391
 21
183.667511986
 31
0.0
  0
LINE
  8
0
  6
CONTINUOUS
 62
     1
 10
266.861442516
 20
183.525931111
 30
0.0
 11
266.663942382
 21
183.328430978
 31
0.0
  0
LINE
  8
0
  6
CONTINUOUS
 62
     1
 10
266.698771647
 20
183.200274958
 30
0.0
 11
266.984317857
 21
183.485821168
 31
0.0
  0
LINE
  8
0
  6
CONTINUOUS
 62
     1
 10
267.104202606
 20
183.605705917
 30
0.0
 11
267.355331391
 21
183.856834701
 31
0.0
  0
LINE
  8
0
  6
CONTINUOUS
 62
     1
 10
267.443116997
 20
183.781635023
 30
0.0
 11
267.192378919
 21
183.530896945
 31
0.0
  0
LINE
  8
0
  6
CONTINUOUS
 62
     1
 10
267.000331572
 20
183.338849598
 30
0.0
 11
266.772524582
 21
183.111042608
 31
0.0
  0
LINE
  8
0
  6
CONTINUOUS
 62
     1
 10
266.869952629
 20
183.04548537
 30
0.0
 11
267.086882894
 21
183.262415635
 31
0.0
  0
LINE
  8
0
  6
CONTINUOUS
 62
     1
 10
267.24083455
 20
183.416367292
 30
0.0
 11
267.518675056
 21
183.694207798
 31
0.0
  0
LINE
  8
0
  6
CONTINUOUS
 62
     1
 10
267.559161069
 20
183.571708526
 30
0.0
 11
266.991478638
 21
183.004026095
 31
0.0
  0
LINE
  8
0
  6
CONTINUOUS
 62
     1
 10
267.146073214
 20
182.995635386
 30
0.0
 11
267.565583231
 21
183.415145403
 31
0.0
  0
LINE
  8
0
  6
CONTINUOUS
 62
     1
 10
267.522014653
 20
183.208591541
 30
0.0
 11
267.360576166
 21
183.047153053
 31
0.0
  0
LINE
  8
0
  6
CONTINUOUS
 62
     1
 10
258.772565943
 20
184.561163787
 30
0.0
 11
258.573173073
 21
184.514817956
 31
0.0
  0
LINE
  8
0
  6
CONTINUOUS
 62
     1
 10
258.573173073
 20
184.514817956
 30
0.0
 11
258.514970528
 21
184.48032884
 31
0.0
  0
LINE
  8
0
  6
CONTINUOUS
 62
     1
 10
258.514970528
 20
184.48032884
 30
0.0
 11
258.40826932
 21
184.341291347
 31
0.0
  0
LINE
  8
0
  6
CONTINUOUS
 62
     1
 10
258.40826932
 20
184.341291347
 30
0.0
 11
258.361923489
 21
184.16884346
 31
0.0
  0
LINE
  8
0
  6
CONTINUOUS
 62
     1
 10
258.361923489
 20
184.16884346
 30
0.0
 11
258.369467623
 21
183.331393868
 31
0.0
  0
LINE
  8
0
  6
CONTINUOUS
 62
     1
 10
258.369467623
 20
183.331393868
 30
0.0
 11
258.430901722
 21
183.158945981
 31
0.0
  0
LINE
  8
0
  6
CONTINUOUS
 62
     1
 10
258.430901722
 20
183.158945981
 30
0.0
 11
258.526827242
 21
183.058710185
 31
0.0
  0
LINE
  8
0
  6
CONTINUOUS
 62
     1
 10
258.526827242
 20
183.058710185
 30
0.0
 11
258.69927513
 21
182.997276086
 31
0.0
  0
LINE
  8
0
  6
CONTINUOUS
 62
     1
 10
258.69927513
 20
182.997276086
 30
0.0
 11
258.926689398
 21
182.997276086
 31
0.0
  0
LINE
  8
0
  6
CONTINUOUS
 62
     1
 10
258.926689398
 20
182.997276086
 30
0.0
 11
259.091593151
 21
183.043621917
 31
0.0
  0
LINE
  8
0
  6
CONTINUOUS
 62
     1
 10
259.091593151
 20
183.043621917
 30
0.0
 11
259.168117823
 21
183.089967748
 31
0.0
  0
LINE
  8
0
  6
CONTINUOUS
 62
     1
 10
259.168117823
 20
183.089967748
 30
0.0
 11
259.275897753
 21
183.227926519
 31
0.0
  0
LINE
  8
0
  6
CONTINUOUS
 62
     1
 10
259.275897753
 20
183.227926519
 30
0.0
 11
259.314697145
 21
183.401450822
 31
0.0
  0
LINE
  8
0
  6
CONTINUOUS
 62
     1
 10
259.314697145
 20
183.401450822
 30
0.0
 11
259.310386869
 21
183.611621685
 31
0.0
  0
LINE
  8
0
  6
CONTINUOUS
 62
     1
 10
259.310386869
 20
183.611621685
 30
0.0
 11
258.964412373
 21
183.608387826
 31
0.0
  0
LINE
  8
0
  6
CONTINUOUS
 62
     1
 10
258.964412373
 20
183.608387826
 30
0.0
 11
258.96118082
 21
183.385283833
 31
0.0
  0
LINE
  8
0
  6
CONTINUOUS
 62
     1
 10
258.96118082
 20
183.385283833
 30
0.0
 11
258.929923257
 21
183.304448886
 31
0.0
  0
LINE
  8
0
  6
CONTINUOUS
 62
     1
 10
258.929923257
 20
183.304448886
 30
0.0
 11
258.868489158
 21
183.262415635
 31
0.0
  0
LINE
  8
0
  6
CONTINUOUS
 62
     1
 10
258.868489158
 20
183.262415635
 30
0.0
 11
258.791964486
 21
183.262415635
 31
0.0
  0
LINE
  8
0
  6
CONTINUOUS
 62
     1
 10
258.791964486
 20
183.262415635
 30
0.0
 11
258.718675978
 21
183.320615875
 31
0.0
  0
LINE
  8
0
  6
CONTINUOUS
 62
     1
 10
258.718675978
 20
183.320615875
 30
0.0
 11
258.707897985
 21
183.362651431
 31
0.0
  0
LINE
  8
0
  6
CONTINUOUS
 62
     1
 10
258.707897985
 20
183.362651431
 30
0.0
 11
258.711129539
 21
184.191478167
 31
0.0
  0
LINE
  8
0
  6
CONTINUOUS
 62
     1
 10
258.711129539
 20
184.191478167
 30
0.0
 11
258.75747537
 21
184.272313114
 31
0.0
  0
LINE
  8
0
  6
CONTINUOUS
 62
     1
 10
258.75747537
 20
184.272313114
 30
0.0
 11
258.811365334
 21
184.291713963
 31
0.0
  0
LINE
  8
0
  6
CONTINUOUS
 62
     1
 10
258.811365334
 20
184.291713963
 30
0.0
 11
258.892200282
 21
184.279857249
 31
0.0
  0
LINE
  8
0
  6
CONTINUOUS
 62
     1
 10
258.892200282
 20
184.279857249
 30
0.0
 11
258.937467391
 21
184.227046005
 31
0.0
  0
LINE
  8
0
  6
CONTINUOUS
 62
     1
 10
258.937467391
 20
184.227046005
 30
0.0
 11
258.956868239
 21
184.149444917
 31
0.0
  0
LINE
  8
0
  6
CONTINUOUS
 62
     1
 10
258.956868239
 20
184.149444917
 30
0.0
 11
258.96118082
 21
184.003942012
 31
0.0
  0
LINE
  8
0
  6
CONTINUOUS
 62
     1
 10
258.96118082
 20
184.003942012
 30
0.0
 11
259.306076594
 21
184.007173566
 31
0.0
  0
LINE
  8
0
  6
CONTINUOUS
 62
     1
 10
259.306076594
 20
184.007173566
 30
0.0
 11
259.295298601
 21
184.257224846
 31
0.0
  0
LINE
  8
0
  6
CONTINUOUS
 62
     1
 10
259.295298601
 20
184.257224846
 30
0.0
 11
259.256496905
 21
184.365004776
 31
0.0
  0
LINE
  8
0
  6
CONTINUOUS
 62
     1
 10
259.256496905
 20
184.365004776
 30
0.0
 11
259.156261109
 21
184.476016259
 31
0.0
  0
LINE
  8
0
  6
CONTINUOUS
 62
     1
 10
259.156261109
 20
184.476016259
 30
0.0
 11
258.998903795
 21
184.544996797
 31
0.0
  0
LINE
  8
0
  6
CONTINUOUS
 62
     1
 10
258.998903795
 20
184.544996797
 30
0.0
 11
258.772565943
 21
184.561163787
 31
0.0
  0
LINE
  8
0
  6
CONTINUOUS
 62
     1
 10
258.602908076
 20
184.521729404
 30
0.0
 11
258.403050188
 21
184.321871516
 31
0.0
  0
LINE
  8
0
  6
CONTINUOUS
 62
     1
 10
258.362379568
 20
184.118215611
 30
0.0
 11
258.803143624
 21
184.558979667
 31
0.0
  0
LINE
  8
0
  6
CONTINUOUS
 62
     1
 10
258.955263223
 20
184.548113981
 30
0.0
 11
258.363834707
 21
183.956685465
 31
0.0
  0
LINE
  8
0
  6
CONTINUOUS
 62
     1
 10
258.365289845
 20
183.795155319
 30
0.0
 11
258.710931937
 21
184.140797411
 31
0.0
  0
LINE
  8
0
  6
CONTINUOUS
 62
     1
 10
258.855390904
 20
184.285256377
 30
0.0
 11
259.07970889
 21
184.509574364
 31
0.0
  0
LINE
  8
0
  6
CONTINUOUS
 62
     1
 10
259.181350018
 20
184.448230207
 30
0.0
 11
258.942007184
 21
184.208887373
 31
0.0
  0
LINE
  8
0
  6
CONTINUOUS
 62
     1
 10
258.710293978
 20
183.977174167
 30
0.0
 11
258.366744983
 21
183.633625172
 31
0.0
  0
LINE
  8
0
  6
CONTINUOUS
 62
     1
 10
258.368200122
 20
183.472095026
 30
0.0
 11
258.709656019
 21
183.813550924
 31
0.0
  0
LINE
  8
0
  6
CONTINUOUS
 62
     1
 10
258.959421028
 20
184.063315932
 30
0.0
 11
259.257718005
 21
184.36161291
 31
0.0
  0
LINE
  8
0
  6
CONTINUOUS
 62
     1
 10
259.296167051
 20
184.237076671
 30
0.0
 11
259.063995732
 21
184.004905352
 31
0.0
  0
LINE
  8
0
  6
CONTINUOUS
 62
     1
 10
258.709018061
 20
183.64992768
 30
0.0
 11
258.374988089
 21
183.315897708
 31
0.0
  0
LINE
  8
0
  6
CONTINUOUS
 62
     1
 10
258.417799655
 20
183.19572399
 30
0.0
 11
258.708380102
 21
183.486304437
 31
0.0
  0
LINE
  8
0
  6
CONTINUOUS
 62
     1
 10
259.228522576
 20
184.006446911
 30
0.0
 11
259.302901932
 21
184.080826267
 31
0.0
  0
LINE
  8
0
  6
CONTINUOUS
 62
     1
 10
258.993722743
 20
183.608661793
 30
0.0
 11
258.963985614
 21
183.578924664
 31
0.0
  0
LINE
  8
0
  6
CONTINUOUS
 62
     1
 10
258.716023159
 20
183.330962209
 30
0.0
 11
258.486211689
 21
183.10115074
 31
0.0
  0
LINE
  8
0
  6
CONTINUOUS
 62
     1
 10
258.585761314
 20
183.03771508
 30
0.0
 11
258.810461869
 21
183.262415635
 31
0.0
  0
LINE
  8
0
  6
CONTINUOUS
 62
     1
 10
258.961590153
 20
183.413543919
 30
0.0
 11
259.158245841
 21
183.610199607
 31
0.0
  0
LINE
  8
0
  6
CONTINUOUS
 62
     1
 10
259.310633377
 20
183.599601858
 30
0.0
 11
258.708307605
 21
182.997276086
 31
0.0
  0
LINE
  8
0
  6
CONTINUOUS
 62
     1
 10
258.87129289
 20
182.997276086
 30
0.0
 11
259.313908777
 21
183.439891973
 31
0.0
  0
LINE
  8
0
  6
CONTINUOUS
 62
     1
 10
259.279056754
 20
183.242054666
 30
0.0
 11
259.076336023
 21
183.039333935
 31
0.0
  0
LINE
  8
0
  6
CONTINUOUS
 62
     1
 10
266.496128429
 20
184.511436018
 30
0.0
 11
266.453956703
 21
184.511436018
 31
0.0
  0
LINE
  8
0
  6
CONTINUOUS
 62
     1
 10
266.290971418
 20
184.511436018
 30
0.0
 11
266.150102124
 21
184.511436018
 31
0.0
  0
LINE
  8
0
  6
CONTINUOUS
 62
     1
 10
265.901169457
 20
184.511436018
 30
0.0
 11
265.802015564
 21
184.511436018
 31
0.0
  0
LINE
  8
0
  6
CONTINUOUS
 62
     1
 10
265.639030279
 20
184.511436018
 30
0.0
 11
265.55955767
 21
184.511436018
 31
0.0
  0
LINE
  8
0
  6
CONTINUOUS
 62
     1
 10
265.559875543
 20
184.461436018
 30
0.0
 11
265.589030279
 21
184.461436018
 31
0.0
  0
LINE
  8
0
  6
CONTINUOUS
 62
     1
 10
265.752015564
 20
184.461436018
 30
0.0
 11
265.901310322
 21
184.461436018
 31
0.0
  0
LINE
  8
0
  6
CONTINUOUS
 62
     1
 10
266.150102124
 20
184.461436018
 30
0.0
 11
266.240971418
 21
184.461436018
 31
0.0
  0
LINE
  8
0
  6
CONTINUOUS
 62
     1
 10
266.403956703
 20
184.461436018
 30
0.0
 11
266.496319513
 21
184.461436018
 31
0.0
  0
LINE
  8
0
  6
CONTINUOUS
 62
     1
 10
266.496510596
 20
184.411436018
 30
0.0
 11
266.353956703
 21
184.411436018
 31
0.0
  0
LINE
  8
0
  6
CONTINUOUS
 62
     1
 10
266.190971418
 20
184.411436018
 30
0.0
 11
266.150102124
 21
184.411436018
 31
0.0
  0
LINE
  8
0
  6
CONTINUOUS
 62
     1
 10
265.901451188
 20
184.411436018
 30
0.0
 11
265.865000849
 21
184.411436018
 31
0.0
  0
LINE
  8
0
  6
CONTINUOUS
 62
     1
 10
265.702015564
 20
184.411436018
 30
0.0
 11
265.560193416
 21
184.411436018
 31
0.0
  0
LINE
  8
0
  6
CONTINUOUS
 62
     1
 10
265.560511289
 20
184.361436018
 30
0.0
 11
265.652015564
 21
184.361436018
 31
0.0
  0
LINE
  8
0
  6
CONTINUOUS
 62
     1
 10
265.815000849
 20
184.361436018
 30
0.0
 11
265.901592053
 21
184.361436018
 31
0.0
  0
LINE
  8
0
  6
CONTINUOUS
 62
     1
 10
266.150102124
 20
184.361436018
 30
0.0
 11
266.303956703
 21
184.361436018
 31
0.0
  0
LINE
  8
0
  6
CONTINUOUS
 62
     1
 10
266.466941987
 20
184.361436018
 30
0.0
 11
266.496701679
 21
184.361436018
 31
0.0
  0
LINE
  8
0
  6
CONTINUOUS
 62
     1
 10
266.496892763
 20
184.311436018
 30
0.0
 11
266.416941987
 21
184.311436018
 31
0.0
  0
LINE
  8
0
  6
CONTINUOUS
 62
     1
 10
266.253956703
 20
184.311436018
 30
0.0
 11
266.150102124
 21
184.311436018
 31
0.0
  0
LINE
  8
0
  6
CONTINUOUS
 62
     1
 10
265.901732918
 20
184.311436018
 30
0.0
 11
265.765000849
 21
184.311436018
 31
0.0
  0
LINE
  8
0
  6
CONTINUOUS
 62
     1
 10
265.602015564
 20
184.311436018
 30
0.0
 11
265.560829162
 21
184.311436018
 31
0.0
  0
LINE
  8
0
  6
CONTINUOUS
 62
     1
 10
265.561147036
 20
184.261436018
 30
0.0
 11
265.715000849
 21
184.261436018
 31
0.0
  0
LINE
  8
0
  6
CONTINUOUS
 62
     1
 10
265.877986133
 20
184.261436018
 30
0.0
 11
265.901873783
 21
184.261436018
 31
0.0
  0
LINE
  8
0
  6
CONTINUOUS
 62
     1
 10
266.150102124
 20
184.261436018
 30
0.0
 11
266.203956703
 21
184.261436018
 31
0.0
  0
LINE
  8
0
  6
CONTINUOUS
 62
     1
 10
266.366941987
 20
184.261436018
 30
0.0
 11
266.497083846
 21
184.261436018
 31
0.0
  0
LINE
  8
0
  6
CONTINUOUS
 62
     1
 10
266.497274929
 20
184.211436018
 30
0.0
 11
266.479927272
 21
184.211436018
 31
0.0
  0
LINE
  8
0
  6
CONTINUOUS
 62
     1
 10
266.316941987
 20
184.211436018
 30
0.0
 11
266.153956703
 21
184.211436018
 31
0.0
  0
LINE
  8
0
  6
CONTINUOUS
 62
     1
 10
265.902014648
 20
184.211436018
 30
0.0
 11
265.827986133
 21
184.211436018
 31
0.0
  0
LINE
  8
0
  6
CONTINUOUS
 62
     1
 10
265.665000849
 20
184.211436018
 30
0.0
 11
265.561464909
 21
184.211436018
 31
0.0
  0
LINE
  8
0
  6
CONTINUOUS
 62
     1
 10
265.561782782
 20
184.161436018
 30
0.0
 11
265.615000849
 21
184.161436018
 31
0.0
  0
LINE
  8
0
  6
CONTINUOUS
 62
     1
 10
265.777986133
 20
184.161436018
 30
0.0
 11
265.902155513
 21
184.161436018
 31
0.0
  0
LINE
  8
0
  6
CONTINUOUS
 62
     1
 10
266.150102124
 20
184.161436018
 30
0.0
 11
266.266941987
 21
184.161436018
 31
0.0
  0
LINE
  8
0
  6
CONTINUOUS
 62
     1
 10
266.429927272
 20
184.161436018
 30
0.0
 11
266.497466013
 21
184.161436018
 31
0.0
  0
LINE
  8
0
  6
CONTINUOUS
 62
     1
 10
266.497657096
 20
184.111436018
 30
0.0
 11
266.379927272
 21
184.111436018
 31
0.0
  0
LINE
  8
0
  6
CONTINUOUS
 62
     1
 10
266.216941987
 20
184.111436018
 30
0.0
 11
266.150102124
 21
184.111436018
 31
0.0
  0
LINE
  8
0
  6
CONTINUOUS
 62
     1
 10
265.890971418
 20
184.111436018
 30
0.0
 11
265.727986133
 21
184.111436018
 31
0.0
  0
LINE
  8
0
  6
CONTINUOUS
 62
     1
 10
265.565000849
 20
184.111436018
 30
0.0
 11
265.562100655
 21
184.111436018
 31
0.0
  0
LINE
  8
0
  6
CONTINUOUS
 62
     1
 10
265.562418528
 20
184.061436018
 30
0.0
 11
265.677986133
 21
184.061436018
 31
0.0
  0
LINE
  8
0
  6
CONTINUOUS
 62
     1
 10
265.840971418
 20
184.061436018
 30
0.0
 11
265.902437244
 21
184.061436018
 31
0.0
  0
LINE
  8
0
  6
CONTINUOUS
 62
     1
 10
266.166941987
 20
184.061436018
 30
0.0
 11
266.329927272
 21
184.061436018
 31
0.0
  0
LINE
  8
0
  6
CONTINUOUS
 62
     1
 10
266.492912556
 20
184.061436018
 30
0.0
 11
266.497848179
 21
184.061436018
 31
0.0
  0
LINE
  8
0
  6
CONTINUOUS
 62
     1
 10
266.498039263
 20
184.011436018
 30
0.0
 11
266.442912556
 21
184.011436018
 31
0.0
  0
LINE
  8
0
  6
CONTINUOUS
 62
     1
 10
266.279927272
 20
184.011436018
 30
0.0
 11
266.150102124
 21
184.011436018
 31
0.0
  0
LINE
  8
0
  6
CONTINUOUS
 62
     1
 10
265.902578109
 20
184.011436018
 30
0.0
 11
265.790971418
 21
184.011436018
 31
0.0
  0
LINE
  8
0
  6
CONTINUOUS
 62
     1
 10
265.627986133
 20
184.011436018
 30
0.0
 11
265.562736401
 21
184.011436018
 31
0.0
  0
LINE
  8
0
  6
CONTINUOUS
 62
     1
 10
265.563054275
 20
183.961436018
 30
0.0
 11
265.577986133
 21
183.961436018
 31
0.0
  0
LINE
  8
0
  6
CONTINUOUS
 62
     1
 10
265.740971418
 20
183.961436018
 30
0.0
 11
265.902718974
 21
183.961436018
 31
0.0
  0
LINE
  8
0
  6
CONTINUOUS
 62
     1
 10
266.150102124
 20
183.961436018
 30
0.0
 11
266.229927272
 21
183.961436018
 31
0.0
  0
LINE
  8
0
  6
CONTINUOUS
 62
     1
 10
266.392912556
 20
183.961436018
 30
0.0
 11
266.498230346
 21
183.961436018
 31
0.0
  0
LINE
  8
0
  6
CONTINUOUS
 62
     1
 10
266.498421429
 20
183.911436018
 30
0.0
 11
266.342912556
 21
183.911436018
 31
0.0
  0
LINE
  8
0
  6
CONTINUOUS
 62
     1
 10
266.179927272
 20
183.911436018
 30
0.0
 11
266.150102124
 21
183.911436018
 31
0.0
  0
LINE
  8
0
  6
CONTINUOUS
 62
     1
 10
265.902859839
 20
183.911436018
 30
0.0
 11
265.853956703
 21
183.911436018
 31
0.0
  0
LINE
  8
0
  6
CONTINUOUS
 62
     1
 10
265.690971418
 20
183.911436018
 30
0.0
 11
265.563372148
 21
183.911436018
 31
0.0
  0
LINE
  8
0
  6
CONTINUOUS
 62
     1
 10
265.563690021
 20
183.861436018
 30
0.0
 11
265.640971418
 21
183.861436018
 31
0.0
  0
LINE
  8
0
  6
CONTINUOUS
 62
     1
 10
265.803956703
 20
183.861436018
 30
0.0
 11
265.903000704
 21
183.861436018
 31
0.0
  0
LINE
  8
0
  6
CONTINUOUS
 62
     1
 10
266.150102124
 20
183.861436018
 30
0.0
 11
266.292912556
 21
183.861436018
 31
0.0
  0
LINE
  8
0
  6
CONTINUOUS
 62
     1
 10
266.455897841
 20
183.861436018
 30
0.0
 11
266.498612513
 21
183.861436018
 31
0.0
  0
LINE
  8
0
  6
CONTINUOUS
 62
     1
 10
266.498803596
 20
183.811436018
 30
0.0
 11
266.405897841
 21
183.811436018
 31
0.0
  0
LINE
  8
0
  6
CONTINUOUS
 62
     1
 10
266.242912556
 20
183.811436018
 30
0.0
 11
266.150102124
 21
183.811436018
 31
0.0
  0
LINE
  8
0
  6
CONTINUOUS
 62
     1
 10
265.903141569
 20
183.811436018
 30
0.0
 11
265.753956703
 21
183.811436018
 31
0.0
  0
LINE
  8
0
  6
CONTINUOUS
 62
     1
 10
265.590971418
 20
183.811436018
 30
0.0
 11
265.564007894
 21
183.811436018
 31
0.0
  0
LINE
  8
0
  6
CONTINUOUS
 62
     1
 10
265.564325767
 20
183.761436018
 30
0.0
 11
265.703956703
 21
183.761436018
 31
0.0
  0
LINE
  8
0
  6
CONTINUOUS
 62
     1
 10
265.866941987
 20
183.761436018
 30
0.0
 11
265.903282435
 21
183.761436018
 31
0.0
  0
LINE
  8
0
  6
CONTINUOUS
 62
     1
 10
266.150102124
 20
183.761436018
 30
0.0
 11
266.192912556
 21
183.761436018
 31
0.0
  0
LINE
  8
0
  6
CONTINUOUS
 62
     1
 10
266.355897841
 20
183.761436018
 30
0.0
 11
266.498994679
 21
183.761436018
 31
0.0
  0
LINE
  8
0
  6
CONTINUOUS
 62
     1
 10
266.499185763
 20
183.711436018
 30
0.0
 11
266.468883126
 21
183.711436018
 31
0.0
  0
LINE
  8
0
  6
CONTINUOUS
 62
     1
 10
266.305897841
 20
183.711436018
 30
0.0
 11
266.150102124
 21
183.711436018
 31
0.0
  0
LINE
  8
0
  6
CONTINUOUS
 62
     1
 10
265.9034233
 20
183.711436018
 30
0.0
 11
265.816941987
 21
183.711436018
 31
0.0
  0
LINE
  8
0
  6
CONTINUOUS
 62
     1
 10
265.653956703
 20
183.711436018
 30
0.0
 11
265.56464364
 21
183.711436018
 31
0.0
  0
LINE
  8
0
  6
CONTINUOUS
 62
     1
 10
265.564961513
 20
183.661436018
 30
0.0
 11
265.603956703
 21
183.661436018
 31
0.0
  0
LINE
  8
0
  6
CONTINUOUS
 62
     1
 10
265.766941987
 20
183.661436018
 30
0.0
 11
265.903564165
 21
183.661436018
 31
0.0
  0
LINE
  8
0
  6
CONTINUOUS
 62
     1
 10
266.150102124
 20
183.661436018
 30
0.0
 11
266.255897841
 21
183.661436018
 31
0.0
  0
LINE
  8
0
  6
CONTINUOUS
 62
     1
 10
266.418883126
 20
183.661436018
 30
0.0
 11
266.499376846
 21
183.661436018
 31
0.0
  0
LINE
  8
0
  6
CONTINUOUS
 62
     1
 10
266.499567929
 20
183.611436018
 30
0.0
 11
266.368883126
 21
183.611436018
 31
0.0
  0
LINE
  8
0
  6
CONTINUOUS
 62
     1
 10
266.205897841
 20
183.611436018
 30
0.0
 11
266.150102124
 21
183.611436018
 31
0.0
  0
LINE
  8
0
  6
CONTINUOUS
 62
     1
 10
265.90370503
 20
183.611436018
 30
0.0
 11
265.879927272
 21
183.611436018
 31
0.0
  0
LINE
  8
0
  6
CONTINUOUS
 62
     1
 10
265.716941987
 20
183.611436018
 30
0.0
 11
265.565279387
 21
183.611436018
 31
0.0
  0
LINE
  8
0
  6
CONTINUOUS
 62
     1
 10
265.56559726
 20
183.561436018
 30
0.0
 11
265.666941987
 21
183.561436018
 31
0.0
  0
LINE
  8
0
  6
CONTINUOUS
 62
     1
 10
265.829927272
 20
183.561436018
 30
0.0
 11
265.903845895
 21
183.561436018
 31
0.0
  0
LINE
  8
0
  6
CONTINUOUS
 62
     1
 10
266.155897841
 20
183.561436018
 30
0.0
 11
266.318883126
 21
183.561436018
 31
0.0
  0
LINE
  8
0
  6
CONTINUOUS
 62
     1
 10
266.48186841
 20
183.561436018
 30
0.0
 11
266.499759013
 21
183.561436018
 31
0.0
  0
LINE
  8
0
  6
CONTINUOUS
 62
     1
 10
266.499950096
 20
183.511436018
 30
0.0
 11
266.43186841
 21
183.511436018
 31
0.0
  0
LINE
  8
0
  6
CONTINUOUS
 62
     1
 10
266.268883126
 20
183.511436018
 30
0.0
 11
266.150102124
 21
183.511436018
 31
0.0
  0
LINE
  8
0
  6
CONTINUOUS
 62
     1
 10
265.90398676
 20
183.511436018
 30
0.0
 11
265.779927272
 21
183.511436018
 31
0.0
  0
LINE
  8
0
  6
CONTINUOUS
 62
     1
 10
265.616941987
 20
183.511436018
 30
0.0
 11
265.565915133
 21
183.511436018
 31
0.0
  0
LINE
  8
0
  6
CONTINUOUS
 62
     1
 10
265.566233006
 20
183.461436018
 30
0.0
 11
265.566941987
 21
183.461436018
 31
0.0
  0
LINE
  8
0
  6
CONTINUOUS
 62
     1
 10
265.729927272
 20
183.461436018
 30
0.0
 11
265.892912556
 21
183.461436018
 31
0.0
  0
LINE
  8
0
  6
CONTINUOUS
 62
     1
 10
266.150102124
 20
183.461436018
 30
0.0
 11
266.218883126
 21
183.461436018
 31
0.0
  0
LINE
  8
0
  6
CONTINUOUS
 62
     1
 10
266.38186841
 20
183.461436018
 30
0.0
 11
266.500141179
 21
183.461436018
 31
0.0
  0
LINE
  8
0
  6
CONTINUOUS
 62
     1
 10
266.500332263
 20
183.411436018
 30
0.0
 11
266.494853695
 21
183.411436018
 31
0.0
  0
LINE
  8
0
  6
CONTINUOUS
 62
     1
 10
266.33186841
 20
183.411436018
 30
0.0
 11
266.168883126
 21
183.411436018
 31
0.0
  0
LINE
  8
0
  6
CONTINUOUS
 62
     1
 10
265.904268491
 20
183.411436018
 30
0.0
 11
265.842912556
 21
183.411436018
 31
0.0
  0
LINE
  8
0
  6
CONTINUOUS
 62
     1
 10
265.679927272
 20
183.411436018
 30
0.0
 11
265.566550879
 21
183.411436018
 31
0.0
  0
LINE
  8
0
  6
CONTINUOUS
 62
     1
 10
265.566868752
 20
183.361436018
 30
0.0
 11
265.629927272
 21
183.361436018
 31
0.0
  0
LINE
  8
0
  6
CONTINUOUS
 62
     1
 10
265.792912556
 20
183.361436018
 30
0.0
 11
265.908653898
 21
183.361436018
 31
0.0
  0
LINE
  8
0
  6
CONTINUOUS
 62
     1
 10
266.144936169
 20
183.361436018
 30
0.0
 11
266.28186841
 21
183.361436018
 31
0.0
  0
LINE
  8
0
  6
CONTINUOUS
 62
     1
 10
266.444853695
 20
183.361436018
 30
0.0
 11
266.491408519
 21
183.361436018
 31
0.0
  0
LINE
  8
0
  6
CONTINUOUS
 62
     1
 10
266.478835357
 20
183.311436018
 30
0.0
 11
266.394853695
 21
183.311436018
 31
0.0
  0
LINE
  8
0
  6
CONTINUOUS
 62
     1
 10
266.23186841
 20
183.311436018
 30
0.0
 11
266.115448603
 21
183.311436018
 31
0.0
  0
LINE
  8
0
  6
CONTINUOUS
 62
     1
 10
265.905897841
 20
183.311436018
 30
0.0
 11
265.742912556
 21
183.311436018
 31
0.0
  0
LINE
  8
0
  6
CONTINUOUS
 62
     1
 10
265.579927272
 20
183.311436018
 30
0.0
 11
265.572835871
 21
183.311436018
 31
0.0
  0
LINE
  8
0
  6
CONTINUOUS
 62
     1
 10
265.583424358
 20
183.261436018
 30
0.0
 11
265.692912556
 21
183.261436018
 31
0.0
  0
LINE
  8
0
  6
CONTINUOUS
 62
     1
 10
265.855897841
 20
183.261436018
 30
0.0
 11
266.18186841
 21
183.261436018
 31
0.0
  0
LINE
  8
0
  6
CONTINUOUS
 62
     1
 10
266.344853695
 20
183.261436018
 30
0.0
 11
266.466262196
 21
183.261436018
 31
0.0
  0
LINE
  8
0
  6
CONTINUOUS
 62
     1
 10
266.45296507
 20
183.211436018
 30
0.0
 11
266.294853695
 21
183.211436018
 31
0.0
  0
LINE
  8
0
  6
CONTINUOUS
 62
     1
 10
266.13186841
 20
183.211436018
 30
0.0
 11
265.805897841
 21
183.211436018
 31
0.0
  0
LINE
  8
0
  6
CONTINUOUS
 62
     1
 10
265.642912556
 20
183.211436018
 30
0.0
 11
265.608361282
 21
183.211436018
 31
0.0
  0
LINE
  8
0
  6
CONTINUOUS
 62
     1
 10
265.638939765
 20
183.161436018
 30
0.0
 11
265.755897841
 21
183.161436018
 31
0.0
  0
LINE
  8
0
  6
CONTINUOUS
 62
     1
 10
265.918883126
 20
183.161436018
 30
0.0
 11
266.244853695
 21
183.161436018
 31
0.0
  0
LINE
  8
0
  6
CONTINUOUS
 62
     1
 10
266.40783898
 20
183.161436018
 30
0.0
 11
266.414534734
 21
183.161436018
 31
0.0
  0
LINE
  8
0
  6
CONTINUOUS
 62
     1
 10
266.376104398
 20
183.111436018
 30
0.0
 11
266.35783898
 21
183.111436018
 31
0.0
  0
LINE
  8
0
  6
CONTINUOUS
 62
     1
 10
266.194853695
 20
183.111436018
 30
0.0
 11
265.868883126
 21
183.111436018
 31
0.0
  0
LINE
  8
0
  6
CONTINUOUS
 62
     1
 10
265.705897841
 20
183.111436018
 30
0.0
 11
265.674222795
 21
183.111436018
 31
0.0
  0
LINE
  8
0
  6
CONTINUOUS
 62
     1
 10
265.747751745
 20
183.061436018
 30
0.0
 11
265.818883126
 21
183.061436018
 31
0.0
  0
LINE
  8
0
  6
CONTINUOUS
 62
     1
 10
265.98186841
 20
183.061436018
 30
0.0
 11
266.144853695
 21
183.061436018
 31
0.0
  0
LINE
  8
0
  6
CONTINUOUS
 62
     1
 10
266.30783898
 20
183.061436018
 30
0.0
 11
266.313304106
 21
183.061436018
 31
0.0
  0
LINE
  8
0
  6
CONTINUOUS
 62
     1
 10
266.180057889
 20
183.011436018
 30
0.0
 11
266.094853695
 21
183.011436018
 31
0.0
  0
LINE
  8
0
  6
CONTINUOUS
 62
     1
 10
265.93186841
 20
183.011436018
 30
0.0
 11
265.886224063
 21
183.011436018
 31
0.0
  0
LINE
  8
0
  6
CONTINUOUS
 62
     1
 10
267.305700657
 20
184.527064799
 30
0.0
 11
267.210635065
 21
184.527064799
 31
0.0
  0
LINE
  8
0
  6
CONTINUOUS
 62
     1
 10
267.047649781
 20
184.527064799
 30
0.0
 11
266.913408002
 21
184.527064799
 31
0.0
  0
LINE
  8
0
  6
CONTINUOUS
 62
     1
 10
266.834219872
 20
184.477064799
 30
0.0
 11
266.997649781
 21
184.477064799
 31
0.0
  0
LINE
  8
0
  6
CONTINUOUS
 62
     1
 10
267.32362035
 20
184.477064799
 30
0.0
 11
267.407905267
 21
184.477064799
 31
0.0
  0
LINE
  8
0
  6
CONTINUOUS
 62
     1
 10
267.454248408
 20
184.427064799
 30
0.0
 11
267.436605634
 21
184.427064799
 31
0.0
  0
LINE
  8
0
  6
CONTINUOUS
 62
     1
 10
267.27362035
 20
184.427064799
 30
0.0
 11
266.947649781
 21
184.427064799
 31
0.0
  0
LINE
  8
0
  6
CONTINUOUS
 62
     1
 10
266.784664496
 20
184.427064799
 30
0.0
 11
266.770383164
 21
184.427064799
 31
0.0
  0
LINE
  8
0
  6
CONTINUOUS
 62
     1
 10
266.744026234
 20
184.377064799
 30
0.0
 11
266.897649781
 21
184.377064799
 31
0.0
  0
LINE
  8
0
  6
CONTINUOUS
 62
     1
 10
267.060635065
 20
184.377064799
 30
0.0
 11
267.22362035
 21
184.377064799
 31
0.0
  0
LINE
  8
0
  6
CONTINUOUS
 62
     1
 10
267.386605634
 20
184.377064799
 30
0.0
 11
267.499394996
 21
184.377064799
 31
0.0
  0
LINE
  8
0
  6
CONTINUOUS
 62
     1
 10
267.523505341
 20
184.327064799
 30
0.0
 11
267.499590919
 21
184.327064799
 31
0.0
  0
LINE
  8
0
  6
CONTINUOUS
 62
     1
 10
267.336605634
 20
184.327064799
 30
0.0
 11
267.010635065
 21
184.327064799
 31
0.0
  0
LINE
  8
0
  6
CONTINUOUS
 62
     1
 10
266.847649781
 20
184.327064799
 30
0.0
 11
266.717669305
 21
184.327064799
 31
0.0
  0
LINE
  8
0
  6
CONTINUOUS
 62
     1
 10
266.697774968
 20
184.277064799
 30
0.0
 11
266.79764978
 21
184.277064799
 31
0.0
  0
LINE
  8
0
  6
CONTINUOUS
 62
     1
 10
266.960635065
 20
184.277064799
 30
0.0
 11
267.046708351
 21
184.277064799
 31
0.0
  0
LINE
  8
0
  6
CONTINUOUS
 62
     1
 10
267.184286394
 20
184.277064799
 30
0.0
 11
267.286605634
 21
184.277064799
 31
0.0
  0
LINE
  8
0
  6
CONTINUOUS
 62
     1
 10
267.449590919
 20
184.277064799
 30
0.0
 11
267.540928872
 21
184.277064799
 31
0.0
  0
LINE
  8
0
  6
CONTINUOUS
 62
     1
 10
267.558352402
 20
184.227064799
 30
0.0
 11
267.399590919
 21
184.227064799
 31
0.0
  0
LINE
  8
0
  6
CONTINUOUS
 62
     1
 10
267.236605634
 20
184.227064799
 30
0.0
 11
267.219850206
 21
184.227064799
 31
0.0
  0
LINE
  8
0
  6
CONTINUOUS
 62
     1
 10
267.01659911
 20
184.227064799
 30
0.0
 11
266.910635065
 21
184.227064799
 31
0.0
  0
LINE
  8
0
  6
CONTINUOUS
 62
     1
 10
266.74764978
 20
184.227064799
 30
0.0
 11
266.685977822
 21
184.227064799
 31
0.0
  0
LINE
  8
0
  6
CONTINUOUS
 62
     1
 10
266.681500123
 20
184.177064799
 30
0.0
 11
266.69764978
 21
184.177064799
 31
0.0
  0
LINE
  8
0
  6
CONTINUOUS
 62
     1
 10
266.860635065
 20
184.177064799
 30
0.0
 11
267.002639984
 21
184.177064799
 31
0.0
  0
LINE
  8
0
  6
CONTINUOUS
 62
     1
 10
267.236923726
 20
184.177064799
 30
0.0
 11
267.349590919
 21
184.177064799
 31
0.0
  0
LINE
  8
0
  6
CONTINUOUS
 62
     1
 10
267.512576204
 20
184.177064799
 30
0.0
 11
267.56228418
 21
184.177064799
 31
0.0
  0
LINE
  8
0
  6
CONTINUOUS
 62
     1
 10
267.564936352
 20
184.127064799
 30
0.0
 11
267.462576204
 21
184.127064799
 31
0.0
  0
LINE
  8
0
  6
CONTINUOUS
 62
     1
 10
267.299590919
 20
184.127064799
 30
0.0
 11
267.242785854
 21
184.127064799
 31
0.0
  0
LINE
  8
0
  6
CONTINUOUS
 62
     1
 10
267.010551279
 20
184.127064799
 30
0.0
 11
266.97362035
 21
184.127064799
 31
0.0
  0
LINE
  8
0
  6
CONTINUOUS
 62
     1
 10
266.810635065
 20
184.127064799
 30
0.0
 11
266.683634122
 21
184.127064799
 31
0.0
  0
LINE
  8
0
  6
CONTINUOUS
 62
     1
 10
266.685768122
 20
184.077064799
 30
0.0
 11
266.760635065
 21
184.077064799
 31
0.0
  0
LINE
  8
0
  6
CONTINUOUS
 62
     1
 10
266.92362035
 20
184.077064799
 30
0.0
 11
267.037217946
 21
184.077064799
 31
0.0
  0
LINE
  8
0
  6
CONTINUOUS
 62
     1
 10
267.097288794
 20
184.027064799
 30
0.0
 11
267.036605634
 21
184.027064799
 31
0.0
  0
LINE
  8
0
  6
CONTINUOUS
 62
     1
 10
266.710635065
 20
184.027064799
 30
0.0
 11
266.687902121
 21
184.027064799
 31
0.0
  0
LINE
  8
0
  6
CONTINUOUS
 62
     1
 10
266.708225527
 20
183.977064799
 30
0.0
 11
266.82362035
 21
183.977064799
 31
0.0
  0
LINE
  8
0
  6
CONTINUOUS
 62
     1
 10
267.149590919
 20
183.977064799
 30
0.0
 11
267.173081089
 21
183.977064799
 31
0.0
  0
LINE
  8
0
  6
CONTINUOUS
 62
     1
 10
267.248873384
 20
183.927064799
 30
0.0
 11
267.099590919
 21
183.927064799
 31
0.0
  0
LINE
  8
0
  6
CONTINUOUS
 62
     1
 10
266.77362035
 20
183.927064799
 30
0.0
 11
266.728729097
 21
183.927064799
 31
0.0
  0
LINE
  8
0
  6
CONTINUOUS
 62
     1
 10
266.749232666
 20
183.877064799
 30
0.0
 11
266.886605634
 21
183.877064799
 31
0.0
  0
LINE
  8
0
  6
CONTINUOUS
 62
     1
 10
267.212576204
 20
183.877064799
 30
0.0
 11
267.32466568
 21
183.877064799
 31
0.0
  0
LINE
  8
0
  6
CONTINUOUS
 62
     1
 10
267.400457975
 20
183.827064799
 30
0.0
 11
267.325561488
 21
183.827064799
 31
0.0
  0
LINE
  8
0
  6
CONTINUOUS
 62
     1
 10
267.162576204
 20
183.827064799
 30
0.0
 11
266.999590919
 21
183.827064799
 31
0.0
  0
LINE
  8
0
  6
CONTINUOUS
 62
     1
 10
266.836605634
 20
183.827064799
 30
0.0
 11
266.80392577
 21
183.827064799
 31
0.0
  0
LINE
  8
0
  6
CONTINUOUS
 62
     1
 10
266.858827717
 20
183.777064799
 30
0.0
 11
266.949590919
 21
183.777064799
 31
0.0
  0
LINE
  8
0
  6
CONTINUOUS
 62
     1
 10
267.112576204
 20
183.777064799
 30
0.0
 11
267.275561488
 21
183.777064799
 31
0.0
  0
LINE
  8
0
  6
CONTINUOUS
 62
     1
 10
267.438546773
 20
183.777064799
 30
0.0
 11
267.447140389
 21
183.777064799
 31
0.0
  0
LINE
  8
0
  6
CONTINUOUS
 62
     1
 10
267.491157827
 20
183.727064799
 30
0.0
 11
267.388546773
 21
183.727064799
 31
0.0
  0
LINE
  8
0
  6
CONTINUOUS
 62
     1
 10
267.062576204
 20
183.727064799
 30
0.0
 11
266.913729664
 21
183.727064799
 31
0.0
  0
LINE
  8
0
  6
CONTINUOUS
 62
     1
 10
266.987385021
 20
183.677064799
 30
0.0
 11
267.012576204
 21
183.677064799
 31
0.0
  0
LINE
  8
0
  6
CONTINUOUS
 62
     1
 10
267.175561488
 20
183.677064799
 30
0.0
 11
267.338546773
 21
183.677064799
 31
0.0
  0
LINE
  8
0
  6
CONTINUOUS
 62
     1
 10
267.501532058
 20
183.677064799
 30
0.0
 11
267.524340818
 21
183.677064799
 31
0.0
  0
LINE
  8
0
  6
CONTINUOUS
 62
     1
 10
267.540865819
 20
183.627064799
 30
0.0
 11
267.451532058
 21
183.627064799
 31
0.0
  0
LINE
  8
0
  6
CONTINUOUS
 62
     1
 10
267.125561488
 20
183.627064799
 30
0.0
 11
267.06923719
 21
183.627064799
 31
0.0
  0
LINE
  8
0
  6
CONTINUOUS
 62
     1
 10
267.151089358
 20
183.577064799
 30
0.0
 11
267.238546773
 21
183.577064799
 31
0.0
  0
LINE
  8
0
  6
CONTINUOUS
 62
     1
 10
267.401532058
 20
183.577064799
 30
0.0
 11
267.55739082
 21
183.577064799
 31
0.0
  0
LINE
  8
0
  6
CONTINUOUS
 62
     1
 10
267.561437083
 20
183.527064799
 30
0.0
 11
267.514517342
 21
183.527064799
 31
0.0
  0
LINE
  8
0
  6
CONTINUOUS
 62
     1
 10
267.351532058
 20
183.527064799
 30
0.0
 11
267.194946441
 21
183.527064799
 31
0.0
  0
LINE
  8
0
  6
CONTINUOUS
 62
     1
 10
266.984317857
 20
183.527064799
 30
0.0
 11
266.947337837
 21
183.527064799
 31
0.0
  0
LINE
  8
0
  6
CONTINUOUS
 62
     1
 10
266.659213413
 20
183.477064799
 30
0.0
 11
266.812576204
 21
183.477064799
 31
0.0
  0
LINE
  8
0
  6
CONTINUOUS
 62
     1
 10
266.975561488
 20
183.477064799
 30
0.0
 11
266.984317857
 21
183.477064799
 31
0.0
  0
LINE
  8
0
  6
CONTINUOUS
 62
     1
 10
267.228446227
 20
183.477064799
 30
0.0
 11
267.301532058
 21
183.477064799
 31
0.0
  0
LINE
  8
0
  6
CONTINUOUS
 62
     1
 10
267.464517342
 20
183.477064799
 30
0.0
 11
267.563289375
 21
183.477064799
 31
0.0
  0
LINE
  8
0
  6
CONTINUOUS
 62
     1
 10
267.565141667
 20
183.427064799
 30
0.0
 11
267.414517342
 21
183.427064799
 31
0.0
  0
LINE
  8
0
  6
CONTINUOUS
 62
     1
 10
267.251532058
 20
183.427064799
 30
0.0
 11
267.24083455
 21
183.427064799
 31
0.0
  0
LINE
  8
0
  6
CONTINUOUS
 62
     1
 10
266.984317857
 20
183.427064799
 30
0.0
 11
266.925561488
 21
183.427064799
 31
0.0
  0
LINE
  8
0
  6
CONTINUOUS
 62
     1
 10
266.762576204
 20
183.427064799
 30
0.0
 11
266.660804225
 21
183.427064799
 31
0.0
  0
LINE
  8
0
  6
CONTINUOUS
 62
     1
 10
266.662395037
 20
183.377064799
 30
0.0
 11
266.712576204
 21
183.377064799
 31
0.0
  0
LINE
  8
0
  6
CONTINUOUS
 62
     1
 10
266.875561488
 20
183.377064799
 30
0.0
 11
266.984595759
 21
183.377064799
 31
0.0
  0
LINE
  8
0
  6
CONTINUOUS
 62
     1
 10
267.24083455
 20
183.377064799
 30
0.0
 11
267.364517342
 21
183.377064799
 31
0.0
  0
LINE
  8
0
  6
CONTINUOUS
 62
     1
 10
267.527502627
 20
183.377064799
 30
0.0
 11
267.566993958
 21
183.377064799
 31
0.0
  0
LINE
  8
0
  6
CONTINUOUS
 62
     1
 10
267.556205459
 20
183.327064799
 30
0.0
 11
267.477502627
 21
183.327064799
 31
0.0
  0
LINE
  8
0
  6
CONTINUOUS
 62
     1
 10
267.314517342
 20
183.327064799
 30
0.0
 11
267.225887556
 21
183.327064799
 31
0.0
  0
LINE
  8
0
  6
CONTINUOUS
 62
     1
 10
267.00518418
 20
183.327064799
 30
0.0
 11
266.988546773
 21
183.327064799
 31
0.0
  0
LINE
  8
0
  6
CONTINUOUS
 62
     1
 10
266.825561488
 20
183.327064799
 30
0.0
 11
266.663985849
 21
183.327064799
 31
0.0
  0
LINE
  8
0
  6
CONTINUOUS
 62
     1
 10
266.668822624
 20
183.277064799
 30
0.0
 11
266.775561488
 21
183.277064799
 31
0.0
  0
LINE
  8
0
  6
CONTINUOUS
 62
     1
 10
266.938546773
 20
183.277064799
 30
0.0
 11
267.059435072
 21
183.277064799
 31
0.0
  0
LINE
  8
0
  6
CONTINUOUS
 62
     1
 10
267.176184065
 20
183.277064799
 30
0.0
 11
267.264517342
 21
183.277064799
 31
0.0
  0
LINE
  8
0
  6
CONTINUOUS
 62
     1
 10
267.427502627
 20
183.277064799
 30
0.0
 11
267.541775702
 21
183.277064799
 31
0.0
  0
LINE
  8
0
  6
CONTINUOUS
 62
     1
 10
267.527345946
 20
183.227064799
 30
0.0
 11
267.377502627
 21
183.227064799
 31
0.0
  0
LINE
  8
0
  6
CONTINUOUS
 62
     1
 10
267.214517342
 20
183.227064799
 30
0.0
 11
266.888546773
 21
183.227064799
 31
0.0
  0
LINE
  8
0
  6
CONTINUOUS
 62
     1
 10
266.725561488
 20
183.227064799
 30
0.0
 11
266.688323265
 21
183.227064799
 31
0.0
  0
LINE
  8
0
  6
CONTINUOUS
 62
     1
 10
266.70856586
 20
183.177064799
 30
0.0
 11
266.838546773
 21
183.177064799
 31
0.0
  0
LINE
  8
0
  6
CONTINUOUS
 62
     1
 10
267.001532058
 20
183.177064799
 30
0.0
 11
267.327502627
 21
183.177064799
 31
0.0
  0
LINE
  8
0
  6
CONTINUOUS
 62
     1
 10
267.490487911
 20
183.177064799
 30
0.0
 11
267.49668414
 21
183.177064799
 31
0.0
  0
LINE
  8
0
  6
CONTINUOUS
 62
     1
 10
267.453501695
 20
183.127064799
 30
0.0
 11
267.440487911
 21
183.127064799
 31
0.0
  0
LINE
  8
0
  6
CONTINUOUS
 62
     1
 10
267.277502627
 20
183.127064799
 30
0.0
 11
266.951532058
 21
183.127064799
 31
0.0
  0
LINE
  8
0
  6
CONTINUOUS
 62
     1
 10
266.788546773
 20
183.127064799
 30
0.0
 11
266.757003151
 21
183.127064799
 31
0.0
  0
LINE
  8
0
  6
CONTINUOUS
 62
     1
 10
266.805440442
 20
183.077064799
 30
0.0
 11
266.901532058
 21
183.077064799
 31
0.0
  0
LINE
  8
0
  6
CONTINUOUS
 62
     1
 10
267.064517342
 20
183.077064799
 30
0.0
 11
267.227502627
 21
183.077064799
 31
0.0
  0
LINE
  8
0
  6
CONTINUOUS
 62
     1
 10
267.390487911
 20
183.077064799
 30
0.0
 11
267.410319251
 21
183.077064799
 31
0.0
  0
LINE
  8
0
  6
CONTINUOUS
 62
     1
 10
267.312961331
 20
183.027064799
 30
0.0
 11
267.177502627
 21
183.027064799
 31
0.0
  0
LINE
  8
0
  6
CONTINUOUS
 62
     1
 10
267.014517342
 20
183.027064799
 30
0.0
 11
266.909055826
 21
183.027064799
 31
0.0
  0
LINE
  8
0
  6
CONTINUOUS
 62
     1
 10
258.635134466
 20
184.529219937
 30
0.0
 11
258.773383894
 21
184.529219937
 31
0.0
  0
LINE
  8
0
  6
CONTINUOUS
 62
     1
 10
258.936369178
 20
184.529219937
 30
0.0
 11
259.034893721
 21
184.529219937
 31
0.0
  0
LINE
  8
0
  6
CONTINUOUS
 62
     1
 10
259.148952931
 20
184.479219937
 30
0.0
 11
259.049354463
 21
184.479219937
 31
0.0
  0
LINE
  8
0
  6
CONTINUOUS
 62
     1
 10
258.886369178
 20
184.479219937
 30
0.0
 11
258.723383894
 21
184.479219937
 31
0.0
  0
LINE
  8
0
  6
CONTINUOUS
 62
     1
 10
258.560398609
 20
184.479219937
 30
0.0
 11
258.514119525
 21
184.479219937
 31
0.0
  0
LINE
  8
0
  6
CONTINUOUS
 62
     1
 10
258.475748145
 20
184.429219937
 30
0.0
 11
258.510398609
 21
184.429219937
 31
0.0
  0
LINE
  8
0
  6
CONTINUOUS
 62
     1
 10
258.673383894
 20
184.429219937
 30
0.0
 11
258.999354463
 21
184.429219937
 31
0.0
  0
LINE
  8
0
  6
CONTINUOUS
 62
     1
 10
259.162339748
 20
184.429219937
 30
0.0
 11
259.198514996
 21
184.429219937
 31
0.0
  0
LINE
  8
0
  6
CONTINUOUS
 62
     1
 10
259.243661584
 20
184.379219937
 30
0.0
 11
259.112339748
 21
184.379219937
 31
0.0
  0
LINE
  8
0
  6
CONTINUOUS
 62
     1
 10
258.949354463
 20
184.379219937
 30
0.0
 11
258.623383894
 21
184.379219937
 31
0.0
  0
LINE
  8
0
  6
CONTINUOUS
 62
     1
 10
258.460398609
 20
184.379219937
 30
0.0
 11
258.437376766
 21
184.379219937
 31
0.0
  0
LINE
  8
0
  6
CONTINUOUS
 62
     1
 10
258.405025096
 20
184.329219937
 30
0.0
 11
258.410398609
 21
184.329219937
 31
0.0
  0
LINE
  8
0
  6
CONTINUOUS
 62
     1
 10
258.573383894
 20
184.329219937
 30
0.0
 11
258.736369178
 21
184.329219937
 31
0.0
  0
LINE
  8
0
  6
CONTINUOUS
 62
     1
 10
258.899354463
 20
184.329219937
 30
0.0
 11
259.062339748
 21
184.329219937
 31
0.0
  0
LINE
  8
0
  6
CONTINUOUS
 62
     1
 10
259.225325032
 20
184.329219937
 30
0.0
 11
259.269379753
 21
184.329219937
 31
0.0
  0
LINE
  8
0
  6
CONTINUOUS
 62
     1
 10
259.287380181
 20
184.279219937
 30
0.0
 11
259.175325032
 21
184.279219937
 31
0.0
  0
LINE
  8
0
  6
CONTINUOUS
 62
     1
 10
259.012339748
 20
184.279219937
 30
0.0
 11
258.892746553
 21
184.279219937
 31
0.0
  0
LINE
  8
0
  6
CONTINUOUS
 62
     1
 10
258.776660531
 20
184.279219937
 30
0.0
 11
258.686369178
 21
184.279219937
 31
0.0
  0
LINE
  8
0
  6
CONTINUOUS
 62
     1
 10
258.523383894
 20
184.279219937
 30
0.0
 11
258.391587462
 21
184.279219937
 31
0.0
  0
LINE
  8
0
  6
CONTINUOUS
 62
     1
 10
258.378149828
 20
184.229219937
 30
0.0
 11
258.473383894
 21
184.229219937
 31
0.0
  0
LINE
  8
0
  6
CONTINUOUS
 62
     1
 10
258.636369178
 20
184.229219937
 30
0.0
 11
258.732768369
 21
184.229219937
 31
0.0
  0
LINE
  8
0
  6
CONTINUOUS
 62
     1
 10
258.962339748
 20
184.229219937
 30
0.0
 11
259.125325032
 21
184.229219937
 31
0.0
  0
LINE
  8
0
  6
CONTINUOUS
 62
     1
 10
259.288310317
 20
184.229219937
 30
0.0
 11
259.296505701
 21
184.229219937
 31
0.0
  0
LINE
  8
0
  6
CONTINUOUS
 62
     1
 10
259.298660857
 20
184.179219937
 30
0.0
 11
259.238310317
 21
184.179219937
 31
0.0
  0
LINE
  8
0
  6
CONTINUOUS
 62
     1
 10
259.075325032
 20
184.179219937
 30
0.0
 11
258.949424263
 21
184.179219937
 31
0.0
  0
LINE
  8
0
  6
CONTINUOUS
 62
     1
 10
258.711081745
 20
184.179219937
 30
0.0
 11
258.586369178
 21
184.179219937
 31
0.0
  0
LINE
  8
0
  6
CONTINUOUS
 62
     1
 10
258.423383894
 20
184.179219937
 30
0.0
 11
258.364712195
 21
184.179219937
 31
0.0
  0
LINE
  8
0
  6
CONTINUOUS
 62
     1
 10
258.362280436
 20
184.129219937
 30
0.0
 11
258.373383894
 21
184.129219937
 31
0.0
  0
LINE
  8
0
  6
CONTINUOUS
 62
     1
 10
258.536369178
 20
184.129219937
 30
0.0
 11
258.699354463
 21
184.129219937
 31
0.0
  0
LINE
  8
0
  6
CONTINUOUS
 62
     1
 10
258.95746769
 20
184.129219937
 30
0.0
 11
259.025325032
 21
184.129219937
 31
0.0
  0
LINE
  8
0
  6
CONTINUOUS
 62
     1
 10
259.188310317
 20
184.129219937
 30
0.0
 11
259.300816014
 21
184.129219937
 31
0.0
  0
LINE
  8
0
  6
CONTINUOUS
 62
     1
 10
259.30297117
 20
184.079219937
 30
0.0
 11
259.301295601
 21
184.079219937
 31
0.0
  0
LINE
  8
0
  6
CONTINUOUS
 62
     1
 10
259.138310317
 20
184.079219937
 30
0.0
 11
258.975325032
 21
184.079219937
 31
0.0
  0
LINE
  8
0
  6
CONTINUOUS
 62
     1
 10
258.71069185
 20
184.079219937
 30
0.0
 11
258.649354463
 21
184.079219937
 31
0.0
  0
LINE
  8
0
  6
CONTINUOUS
 62
     1
 10
258.486369178
 20
184.079219937
 30
0.0
 11
258.362730859
 21
184.079219937
 31
0.0
  0
LINE
  8
0
  6
CONTINUOUS
 62
     1
 10
258.363181282
 20
184.029219937
 30
0.0
 11
258.436369178
 21
184.029219937
 31
0.0
  0
LINE
  8
0
  6
CONTINUOUS
 62
     1
 10
258.599354463
 20
184.029219937
 30
0.0
 11
258.710496902
 21
184.029219937
 31
0.0
  0
LINE
  8
0
  6
CONTINUOUS
 62
     1
 10
258.960431604
 20
184.029219937
 30
0.0
 11
259.088310317
 21
184.029219937
 31
0.0
  0
LINE
  8
0
  6
CONTINUOUS
 62
     1
 10
259.251295601
 20
184.029219937
 30
0.0
 11
259.305126327
 21
184.029219937
 31
0.0
  0
LINE
  8
0
  6
CONTINUOUS
 62
     1
 10
258.710301955
 20
183.979219937
 30
0.0
 11
258.549354463
 21
183.979219937
 31
0.0
  0
LINE
  8
0
  6
CONTINUOUS
 62
     1
 10
258.386369178
 20
183.979219937
 30
0.0
 11
258.363631706
 21
183.979219937
 31
0.0
  0
LINE
  8
0
  6
CONTINUOUS
 62
     1
 10
258.364082129
 20
183.929219937
 30
0.0
 11
258.499354463
 21
183.929219937
 31
0.0
  0
LINE
  8
0
  6
CONTINUOUS
 62
     1
 10
258.662339748
 20
183.929219937
 30
0.0
 11
258.710107007
 21
183.929219937
 31
0.0
  0
LINE
  8
0
  6
CONTINUOUS
 62
     1
 10
258.70991206
 20
183.879219937
 30
0.0
 11
258.612339748
 21
183.879219937
 31
0.0
  0
LINE
  8
0
  6
CONTINUOUS
 62
     1
 10
258.449354463
 20
183.879219937
 30
0.0
 11
258.364532552
 21
183.879219937
 31
0.0
  0
LINE
  8
0
  6
CONTINUOUS
 62
     1
 10
258.364982975
 20
183.829219937
 30
0.0
 11
258.399354463
 21
183.829219937
 31
0.0
  0
LINE
  8
0
  6
CONTINUOUS
 62
     1
 10
258.562339748
 20
183.829219937
 30
0.0
 11
258.709717112
 21
183.829219937
 31
0.0
  0
LINE
  8
0
  6
CONTINUOUS
 62
     1
 10
258.709522165
 20
183.779219937
 30
0.0
 11
258.675325032
 21
183.779219937
 31
0.0
  0
LINE
  8
0
  6
CONTINUOUS
 62
     1
 10
258.512339748
 20
183.779219937
 30
0.0
 11
258.365433398
 21
183.779219937
 31
0.0
  0
LINE
  8
0
  6
CONTINUOUS
 62
     1
 10
258.365883821
 20
183.729219937
 30
0.0
 11
258.462339748
 21
183.729219937
 31
0.0
  0
LINE
  8
0
  6
CONTINUOUS
 62
     1
 10
258.625325032
 20
183.729219937
 30
0.0
 11
258.709327217
 21
183.729219937
 31
0.0
  0
LINE
  8
0
  6
CONTINUOUS
 62
     1
 10
258.70913227
 20
183.679219937
 30
0.0
 11
258.575325032
 21
183.679219937
 31
0.0
  0
LINE
  8
0
  6
CONTINUOUS
 62
     1
 10
258.412339748
 20
183.679219937
 30
0.0
 11
258.366334245
 21
183.679219937
 31
0.0
  0
LINE
  8
0
  6
CONTINUOUS
 62
     1
 10
258.366784668
 20
183.629219937
 30
0.0
 11
258.525325032
 21
183.629219937
 31
0.0
  0
LINE
  8
0
  6
CONTINUOUS
 62
     1
 10
258.688310317
 20
183.629219937
 30
0.0
 11
258.708937322
 21
183.629219937
 31
0.0
  0
LINE
  8
0
  6
CONTINUOUS
 62
     1
 10
259.311051379
 20
183.579219937
 30
0.0
 11
259.290251455
 21
183.579219937
 31
0.0
  0
LINE
  8
0
  6
CONTINUOUS
 62
     1
 10
259.127266171
 20
183.579219937
 30
0.0
 11
258.964280886
 21
183.579219937
 31
0.0
  0
LINE
  8
0
  6
CONTINUOUS
 62
     1
 10
258.708742375
 20
183.579219937
 30
0.0
 11
258.638310317
 21
183.579219937
 31
0.0
  0
LINE
  8
0
  6
CONTINUOUS
 62
     1
 10
258.475325032
 20
183.579219937
 30
0.0
 11
258.367235091
 21
183.579219937
 31
0.0
  0
LINE
  8
0
  6
CONTINUOUS
 62
     1
 10
258.367685514
 20
183.529219937
 30
0.0
 11
258.425325032
 21
183.529219937
 31
0.0
  0
LINE
  8
0
  6
CONTINUOUS
 62
     1
 10
258.588310317
 20
183.529219937
 30
0.0
 11
258.708547427
 21
183.529219937
 31
0.0
  0
LINE
  8
0
  6
CONTINUOUS
 62
     1
 10
258.963265665
 20
183.529219937
 30
0.0
 11
259.077266171
 21
183.529219937
 31
0.0
  0
LINE
  8
0
  6
CONTINUOUS
 62
     1
 10
259.240251455
 20
183.529219937
 30
0.0
 11
259.3120768
 21
183.529219937
 31
0.0
  0
LINE
  8
0
  6
CONTINUOUS
 62
     1
 10
259.313102222
 20
183.479219937
 30
0.0
 11
259.190251455
 21
183.479219937
 31
0.0
  0
LINE
  8
0
  6
CONTINUOUS
 62
     1
 10
259.027266171
 20
183.479219937
 30
0.0
 11
258.962541439
 21
183.479219937
 31
0.0
  0
LINE
  8
0
  6
CONTINUOUS
 62
     1
 10
258.701295601
 20
183.479219937
 30
0.0
 11
258.538310317
 21
183.479219937
 31
0.0
  0
LINE
  8
0
  6
CONTINUOUS
 62
     1
 10
258.375325032
 20
183.479219937
 30
0.0
 11
258.368135937
 21
183.479219937
 31
0.0
  0
LINE
  8
0
  6
CONTINUOUS
 62
     1
 10
258.36858636
 20
183.429219937
 30
0.0
 11
258.488310317
 21
183.429219937
 31
0.0
  0
LINE
  8
0
  6
CONTINUOUS
 62
     1
 10
258.651295601
 20
183.429219937
 30
0.0
 11
258.708157532
 21
183.429219937
 31
0.0
  0
LINE
  8
0
  6
CONTINUOUS
 62
     1
 10
258.977266171
 20
183.429219937
 30
0.0
 11
259.140251455
 21
183.429219937
 31
0.0
  0
LINE
  8
0
  6
CONTINUOUS
 62
     1
 10
259.30323674
 20
183.429219937
 30
0.0
 11
259.314127644
 21
183.429219937
 31
0.0
  0
LINE
  8
0
  6
CONTINUOUS
 62
     1
 10
259.309726401
 20
183.379219937
 30
0.0
 11
259.25323674
 21
183.379219937
 31
0.0
  0
LINE
  8
0
  6
CONTINUOUS
 62
     1
 10
259.090251455
 20
183.379219937
 30
0.0
 11
258.958836009
 21
183.379219937
 31
0.0
  0
LINE
  8
0
  6
CONTINUOUS
 62
     1
 10
258.707962585
 20
183.379219937
 30
0.0
 11
258.601295601
 21
183.379219937
 31
0.0
  0
LINE
  8
0
  6
CONTINUOUS
 62
     1
 10
258.438310317
 20
183.379219937
 30
0.0
 11
258.369036784
 21
183.379219937
 31
0.0
  0
LINE
  8
0
  6
CONTINUOUS
 62
     1
 10
258.37024208
 20
183.329219937
 30
0.0
 11
258.388310317
 21
183.329219937
 31
0.0
  0
LINE
  8
0
  6
CONTINUOUS
 62
     1
 10
258.551295601
 20
183.329219937
 30
0.0
 11
258.714280886
 21
183.329219937
 31
0.0
  0
LINE
  8
0
  6
CONTINUOUS
 62
     1
 10
258.93950182
 20
183.329219937
 30
0.0
 11
259.040251455
 21
183.329219937
 31
0.0
  0
LINE
  8
0
  6
CONTINUOUS
 62
     1
 10
259.20323674
 20
183.329219937
 30
0.0
 11
259.298546586
 21
183.329219937
 31
0.0
  0
LINE
  8
0
  6
CONTINUOUS
 62
     1
 10
259.287366771
 20
183.279219937
 30
0.0
 11
259.15323674
 21
183.279219937
 31
0.0
  0
LINE
  8
0
  6
CONTINUOUS
 62
     1
 10
258.990251455
 20
183.279219937
 30
0.0
 11
258.893049645
 21
183.279219937
 31
0.0
  0
LINE
  8
0
  6
CONTINUOUS
 62
     1
 10
258.770803711
 20
183.279219937
 30
0.0
 11
258.664280886
 21
183.279219937
 31
0.0
  0
LINE
  8
0
  6
CONTINUOUS
 62
     1
 10
258.501295601
 20
183.279219937
 30
0.0
 11
258.388054447
 21
183.279219937
 31
0.0
  0
LINE
  8
0
  6
CONTINUOUS
 62
     1
 10
258.405866813
 20
183.229219937
 30
0.0
 11
258.451295601
 21
183.229219937
 31
0.0
  0
LINE
  8
0
  6
CONTINUOUS
 62
     1
 10
258.614280886
 20
183.229219937
 30
0.0
 11
258.777266171
 21
183.229219937
 31
0.0
  0
LINE
  8
0
  6
CONTINUOUS
 62
     1
 10
258.940251455
 20
183.229219937
 30
0.0
 11
259.10323674
 21
183.229219937
 31
0.0
  0
LINE
  8
0
  6
CONTINUOUS
 62
     1
 10
259.266222025
 20
183.229219937
 30
0.0
 11
259.276186956
 21
183.229219937
 31
0.0
  0
LINE
  8
0
  6
CONTINUOUS
 62
     1
 10
259.237845863
 20
183.179219937
 30
0.0
 11
259.216222025
 21
183.179219937
 31
0.0
  0
LINE
  8
0
  6
CONTINUOUS
 62
     1
 10
259.05323674
 20
183.179219937
 30
0.0
 11
258.727266171
 21
183.179219937
 31
0.0
  0
LINE
  8
0
  6
CONTINUOUS
 62
     1
 10
258.564280886
 20
183.179219937
 30
0.0
 11
258.423679179
 21
183.179219937
 31
0.0
  0
LINE
  8
0
  6
CONTINUOUS
 62
     1
 10
258.459349506
 20
183.129219937
 30
0.0
 11
258.514280886
 21
183.129219937
 31
0.0
  0
LINE
  8
0
  6
CONTINUOUS
 62
     1
 10
258.677266171
 20
183.129219937
 30
0.0
 11
259.00323674
 21
183.129219937
 31
0.0
  0
LINE
  8
0
  6
CONTINUOUS
 62
     1
 10
259.166222025
 20
183.129219937
 30
0.0
 11
259.198783493
 21
183.129219937
 31
0.0
  0
LINE
  8
0
  6
CONTINUOUS
 62
     1
 10
259.1503714
 20
183.079219937
 30
0.0
 11
259.116222025
 21
183.079219937
 31
0.0
  0
LINE
  8
0
  6
CONTINUOUS
 62
     1
 10
258.95323674
 20
183.079219937
 30
0.0
 11
258.790251455
 21
183.079219937
 31
0.0
  0
LINE
  8
0
  6
CONTINUOUS
 62
     1
 10
258.627266171
 20
183.079219937
 30
0.0
 11
258.507199438
 21
183.079219937
 31
0.0
  0
LINE
  8
0
  6
CONTINUOUS
 62
     1
 10
258.609607509
 20
183.029219937
 30
0.0
 11
258.740251455
 21
183.029219937
 31
0.0
  0
LINE
  8
0
  6
CONTINUOUS
 62
     1
 10
258.90323674
 20
183.029219937
 30
0.0
 11
259.040349262
 21
183.029219937
 31
0.0
  0
LINE
  8
0
  6
CONTINUOUS
 62
     1
 10
264.737106325
 20
186.519524647
 30
0.0
 11
264.594837279
 21
186.458090548
 31
0.0
  0
LINE
  8
0
  6
CONTINUOUS
 62
     1
 10
264.594837279
 20
186.458090548
 30
0.0
 11
264.506458197
 21
186.357854752
 31
0.0
  0
LINE
  8
0
  6
CONTINUOUS
 62
     1
 10
264.506458197
 20
186.357854752
 30
0.0
 11
264.464422642
 21
186.22312984
 31
0.0
  0
LINE
  8
0
  6
CONTINUOUS
 62
     1
 10
264.464422642
 20
186.22312984
 30
0.0
 11
264.476279356
 21
186.104571918
 31
0.0
  0
LINE
  8
0
  6
CONTINUOUS
 62
     1
 10
264.476279356
 20
186.104571918
 30
0.0
 11
264.514002332
 21
186.020503112
 31
0.0
  0
LINE
  8
0
  6
CONTINUOUS
 62
     1
 10
264.514002332
 20
186.020503112
 30
0.0
 11
264.653037519
 21
185.900868773
 31
0.0
  0
LINE
  8
0
  6
CONTINUOUS
 62
     1
 10
264.653037519
 20
185.900868773
 30
0.0
 11
264.779139575
 21
185.870689931
 31
0.0
  0
LINE
  8
0
  6
CONTINUOUS
 62
     1
 10
264.779139575
 20
185.870689931
 30
0.0
 11
264.925721202
 21
185.900868773
 31
0.0
  0
LINE
  8
0
  6
CONTINUOUS
 62
     1
 10
264.925721202
 20
185.900868773
 30
0.0
 11
265.024878276
 21
185.97739114
 31
0.0
  0
LINE
  8
0
  6
CONTINUOUS
 62
     1
 10
265.024878276
 20
185.97739114
 30
0.0
 11
265.102479364
 21
186.112116052
 31
0.0
  0
LINE
  8
0
  6
CONTINUOUS
 62
     1
 10
265.102479364
 20
186.112116052
 30
0.0
 11
265.102479364
 21
186.277019805
 31
0.0
  0
LINE
  8
0
  6
CONTINUOUS
 62
     1
 10
265.102479364
 20
186.277019805
 30
0.0
 11
265.066913831
 21
186.362165027
 31
0.0
  0
LINE
  8
0
  6
CONTINUOUS
 62
     1
 10
265.066913831
 20
186.362165027
 30
0.0
 11
264.960210318
 21
186.469944957
 31
0.0
  0
LINE
  8
0
  6
CONTINUOUS
 62
     1
 10
264.960210318
 20
186.469944957
 30
0.0
 11
264.83734212
 21
186.519524647
 31
0.0
  0
LINE
  8
0
  6
CONTINUOUS
 62
     1
 10
264.83734212
 20
186.519524647
 30
0.0
 11
264.737106325
 21
186.519524647
 31
0.0
  0
LINE
  8
0
  6
CONTINUOUS
 62
     1
 10
264.756507173
 20
186.48503553
 30
0.0
 11
264.844886254
 21
186.48503553
 31
0.0
  0
LINE
  8
0
  6
CONTINUOUS
 62
     1
 10
264.844886254
 20
186.48503553
 30
0.0
 11
264.94080947
 21
186.446233834
 31
0.0
  0
LINE
  8
0
  6
CONTINUOUS
 62
     1
 10
264.94080947
 20
186.446233834
 30
0.0
 11
265.051823258
 21
186.323365636
 31
0.0
  0
LINE
  8
0
  6
CONTINUOUS
 62
     1
 10
265.051823258
 20
186.323365636
 30
0.0
 11
265.078768241
 21
186.231752696
 31
0.0
  0
LINE
  8
0
  6
CONTINUOUS
 62
     1
 10
265.078768241
 20
186.231752696
 30
0.0
 11
265.075534382
 21
186.135827175
 31
0.0
  0
LINE
  8
0
  6
CONTINUOUS
 62
     1
 10
265.075534382
 20
186.135827175
 30
0.0
 11
265.044279124
 21
186.054992228
 31
0.0
  0
LINE
  8
0
  6
CONTINUOUS
 62
     1
 10
265.044279124
 20
186.054992228
 30
0.0
 11
264.936499195
 21
185.942902023
 31
0.0
  0
LINE
  8
0
  6
CONTINUOUS
 62
     1
 10
264.936499195
 20
185.942902023
 30
0.0
 11
264.825485406
 21
185.905179048
 31
0.0
  0
LINE
  8
0
  6
CONTINUOUS
 62
     1
 10
264.825485406
 20
185.905179048
 30
0.0
 11
264.710161342
 21
185.912723182
 31
0.0
  0
LINE
  8
0
  6
CONTINUOUS
 62
     1
 10
264.710161342
 20
185.912723182
 30
0.0
 11
264.599147554
 21
185.974157281
 31
0.0
  0
LINE
  8
0
  6
CONTINUOUS
 62
     1
 10
264.599147554
 20
185.974157281
 30
0.0
 11
264.521546466
 21
186.07331666
 31
0.0
  0
LINE
  8
0
  6
CONTINUOUS
 62
     1
 10
264.521546466
 20
186.07331666
 30
0.0
 11
264.494601483
 21
186.173550151
 31
0.0
  0
LINE
  8
0
  6
CONTINUOUS
 62
     1
 10
264.494601483
 20
186.173550151
 30
0.0
 11
264.503224339
 21
186.266241812
 31
0.0
  0
LINE
  8
0
  6
CONTINUOUS
 62
     1
 10
264.503224339
 20
186.266241812
 30
0.0
 11
264.579746706
 21
186.399888003
 31
0.0
  0
LINE
  8
0
  6
CONTINUOUS
 62
     1
 10
264.579746706
 20
186.399888003
 30
0.0
 11
264.695073074
 21
186.473178816
 31
0.0
  0
LINE
  8
0
  6
CONTINUOUS
 62
     1
 10
264.695073074
 20
186.473178816
 30
0.0
 11
264.756507173
 21
186.48503553
 31
0.0
  0
LINE
  8
0
  6
CONTINUOUS
 62
     1
 10
264.687526635
 20
186.37294302
 30
0.0
 11
264.687526635
 21
186.020503112
 31
0.0
  0
LINE
  8
0
  6
CONTINUOUS
 62
     1
 10
264.687526635
 20
186.020503112
 30
0.0
 11
264.717705476
 21
186.020503112
 31
0.0
  0
LINE
  8
0
  6
CONTINUOUS
 62
     1
 10
264.717705476
 20
186.020503112
 30
0.0
 11
264.725249611
 21
186.177862731
 31
0.0
  0
LINE
  8
0
  6
CONTINUOUS
 62
     1
 10
264.725249611
 20
186.177862731
 30
0.0
 11
264.821175131
 21
186.170318597
 31
0.0
  0
LINE
  8
0
  6
CONTINUOUS
 62
     1
 10
264.821175131
 20
186.170318597
 30
0.0
 11
264.852430388
 21
186.119660186
 31
0.0
  0
LINE
  8
0
  6
CONTINUOUS
 62
     1
 10
264.852430388
 20
186.119660186
 30
0.0
 11
264.864287103
 21
186.020503112
 31
0.0
  0
LINE
  8
0
  6
CONTINUOUS
 62
     1
 10
264.864287103
 20
186.020503112
 30
0.0
 11
264.906320353
 21
186.028047246
 31
0.0
  0
LINE
  8
0
  6
CONTINUOUS
 62
     1
 10
264.906320353
 20
186.028047246
 30
0.0
 11
264.898776219
 21
186.028047246
 31
0.0
  0
LINE
  8
0
  6
CONTINUOUS
 62
     1
 10
264.898776219
 20
186.028047246
 30
0.0
 11
264.875065096
 21
186.170318597
 31
0.0
  0
LINE
  8
0
  6
CONTINUOUS
 62
     1
 10
264.875065096
 20
186.170318597
 30
0.0
 11
264.83734212
 21
186.200495133
 31
0.0
  0
LINE
  8
0
  6
CONTINUOUS
 62
     1
 10
264.83734212
 20
186.200495133
 30
0.0
 11
264.891232085
 21
186.258697678
 31
0.0
  0
LINE
  8
0
  6
CONTINUOUS
 62
     1
 10
264.891232085
 20
186.258697678
 30
0.0
 11
264.879375371
 21
186.335220045
 31
0.0
  0
LINE
  8
0
  6
CONTINUOUS
 62
     1
 10
264.879375371
 20
186.335220045
 30
0.0
 11
264.806084558
 21
186.37294302
 31
0.0
  0
LINE
  8
0
  6
CONTINUOUS
 62
     1
 10
264.806084558
 20
186.37294302
 30
0.0
 11
264.687526635
 21
186.37294302
 31
0.0
  0
LINE
  8
0
  6
CONTINUOUS
 62
     1
 10
264.722018057
 20
186.335220045
 30
0.0
 11
264.825485406
 21
186.33090977
 31
0.0
  0
LINE
  8
0
  6
CONTINUOUS
 62
     1
 10
264.825485406
 20
186.33090977
 30
0.0
 11
264.852430388
 21
186.293186794
 31
0.0
  0
LINE
  8
0
  6
CONTINUOUS
 62
     1
 10
264.852430388
 20
186.293186794
 30
0.0
 11
264.852430388
 21
186.254385098
 31
0.0
  0
LINE
  8
0
  6
CONTINUOUS
 62
     1
 10
264.852430388
 20
186.254385098
 30
0.0
 11
264.813630997
 21
186.212351847
 31
0.0
  0
LINE
  8
0
  6
CONTINUOUS
 62
     1
 10
264.813630997
 20
186.212351847
 30
0.0
 11
264.725249611
 21
186.208041572
 31
0.0
  0
LINE
  8
0
  6
CONTINUOUS
 62
     1
 10
264.725249611
 20
186.208041572
 30
0.0
 11
264.722018057
 21
186.335220045
 31
0.0
  0
POINT
  8
0
  6
CONTINUOUS
 62
     3
 10
257.586814278
 20
186.486816506
 30
0.0
  0
POINT
  8
0
  6
CONTINUOUS
 62
     3
 10
257.586814278
 20
182.997582227
 30
0.0
  0
POINT
  8
0
  6
CONTINUOUS
 62
     3
 10
254.09758
 20
186.486816506
 30
0.0
  0
POINT
  8
0
  6
CONTINUOUS
 62
     3
 10
254.234412717
 20
186.349983789
 30
0.0
  0
POINT
  8
0
  6
CONTINUOUS
 62
     3
 10
257.449981562
 20
186.349983789
 30
0.0
  0
POINT
  8
0
  6
CONTINUOUS
 62
     3
 10
257.449981562
 20
183.134414944
 30
0.0
  0
POINT
  8
0
  6
CONTINUOUS
 62
     1
 10
247.16
 20
204.350000318
 30
0.0
  0
LINE
  8
0
  6
CONTINUOUS
 62
     1
 10
241.56
 20
200.250000318
 30
0.0
 11
241.56
 21
199.850000318
 31
0.0
  0
LINE
  8
0
  6
CONTINUOUS
 62
     1
 10
240.31
 20
200.250000318
 30
0.0
 11
241.56
 21
200.250000318
 31
0.0
  0
CIRCLE
  8
0
  6
CONTINUOUS
 62
     1
 10
239.31
 20
200.250000318
 30
0.0
 40
1.0
  0
TEXT
  8
0
  6
CONTINUOUS
 62
     1
 10
238.91
 20
199.500000318
 30
0.0
 40
1.5
  1
２
 50
0.0
 41
0.666666667
 51
0.0
  7
KANJI5
  0
TEXT
  8
0
  6
CONTINUOUS
 62
     1
 10
235.16
 20
203.650000318
 30
0.0
 40
1.75
  1
ＯＵＴ２／ＡＬ２
 50
0.0
 41
0.857142857
 51
0.0
  7
KANJI4
  0
TEXT
  8
0
  6
CONTINUOUS
 62
     1
 10
233.865
 20
199.525000318
 30
0.0
 40
1.75
  1
ＮＯ
 50
0.0
 41
0.857142857
 51
0.0
  7
KANJI4
  0
TEXT
  8
0
  6
CONTINUOUS
 62
     1
 10
241.865
 20
199.550000318
 30
0.0
 40
1.75
  1
＋
 50
0.0
 41
0.857142857
 51
0.0
  7
KANJI4
  0
TEXT
  8
0
  6
CONTINUOUS
 62
     1
 10
246.965
 20
202.400000318
 30
0.0
 40
1.75
  1
－
 50
0.0
 41
0.857142857
 51
0.0
  7
KANJI4
  0
CIRCLE
  8
0
  6
CONTINUOUS
 62
     1
 10
250.535
 20
204.300000318
 30
0.0
 40
1.0
  0
LINE
  8
0
  6
CONTINUOUS
 62
     1
 10
249.51
 20
204.350000318
 30
0.0
 11
247.01
 21
204.350000318
 31
0.0
  0
TEXT
  8
0
  6
CONTINUOUS
 62
     1
 10
250.085
 20
203.550000318
 30
0.075
 40
1.5
  1
６
 50
0.0
 41
0.666666667
 51
0.0
  7
KANJI6
  0
LINE
  8
0
  6
CONTINUOUS
 62
     1
 10
252.76
 20
199.775000318
 30
0.0
 11
252.76
 21
200.175000318
 31
0.0
  0
LINE
  8
0
  6
CONTINUOUS
 62
     1
 10
251.51
 20
200.175000318
 30
0.0
 11
252.76
 21
200.175000318
 31
0.0
  0
CIRCLE
  8
0
  6
CONTINUOUS
 62
     1
 10
250.535
 20
200.200000318
 30
0.0
 40
1.0
  0
TEXT
  8
0
  6
CONTINUOUS
 62
     1
 10
250.085
 20
199.450000318
 30
0.0
 40
1.5
  1
７
 50
0.0
 41
0.666666667
 51
0.0
  7
KANJI5
  0
TEXT
  8
0
  6
CONTINUOUS
 62
     1
 10
253.005
 20
199.500000318
 30
0.0
 40
1.75
  1
（Ａ）
 50
0.0
 41
0.857142857
 51
0.0
  7
KANJI4
  0
TEXT
  8
0
  6
CONTINUOUS
 62
     1
 10
251.315
 20
200.975000318
 30
0.0
 40
1.75
  1
＋
 50
0.0
 41
0.857142857
 51
0.0
  7
KANJI4
  0
LINE
  8
0
  6
CONTINUOUS
 62
     1
 10
259.36
 20
203.950000318
 30
0.0
 11
259.36
 21
204.350000318
 31
0.0
  0
LINE
  8
0
  6
CONTINUOUS
 62
     1
 10
258.11
 20
204.350000318
 30
0.0
 11
259.36
 21
204.350000318
 31
0.0
  0
CIRCLE
  8
0
  6
CONTINUOUS
 62
     1
 10
257.11
 20
204.350000318
 30
0.0
 40
1.0
  0
TEXT
  8
0
  6
CONTINUOUS
 62
     1
 10
256.56
 20
203.650000318
 30
0.0
 40
1.5
  1
１１
 50
0.0
 41
0.4
 51
0.0
  7
KANJI7
  0
LINE
  8
0
  6
CONTINUOUS
 62
     1
 10
259.36
 20
200.250000318
 30
0.0
 11
259.36
 21
200.650000318
 31
0.0
  0
LINE
  8
0
  6
CONTINUOUS
 62
     1
 10
258.11
 20
200.250000318
 30
0.0
 11
259.36
 21
200.250000318
 31
0.0
  0
CIRCLE
  8
0
  6
CONTINUOUS
 62
     1
 10
257.11
 20
200.250000318
 30
0.0
 40
1.0
  0
TEXT
  8
0
  6
CONTINUOUS
 62
     1
 10
256.56
 20
199.550000318
 30
0.0
 40
1.5
  1
１２
 50
0.0
 41
0.4
 51
0.0
  7
KANJI7
  0
TEXT
  8
0
  6
CONTINUOUS
 62
     1
 10
256.46
 20
201.400000318
 30
0.0
 40
1.75
  1
ＡＬ１
 50
0.0
 41
0.857142857
 51
0.0
  7
KANJI4
  0
CIRCLE
  8
0
  6
CONTINUOUS
 62
     1
 10
231.41
 20
204.350000318
 30
0.0
 40
1.0
  0
LINE
  8
0
  6
CONTINUOUS
 62
     1
 10
233.71
 20
196.150000318
 30
0.0
 11
233.71
 21
196.550000318
 31
0.0
  0
LINE
  8
0
  6
CONTINUOUS
 62
     1
 10
232.41
 20
196.150000318
 30
0.0
 11
233.71
 21
196.150000318
 31
0.0
  0
CIRCLE
  8
0
  6
CONTINUOUS
 62
     1
 10
231.36
 20
192.050000318
 30
0.0
 40
1.0
  0
TEXT
  8
0
  6
CONTINUOUS
 62
     1
 10
230.86
 20
191.300000318
 30
0.0
 40
1.5
  1
４
 50
0.0
 41
0.666666667
 51
0.0
  7
KANJI5
  0
CIRCLE
  8
0
  6
CONTINUOUS
 62
     1
 10
231.41
 20
187.950000318
 30
0.0
 40
1.0
  0
TEXT
  8
0
  6
CONTINUOUS
 62
     1
 10
230.96
 20
187.200000318
 30
0.0
 40
1.5
  1
５
 50
0.0
 41
0.666666667
 51
0.0
  7
KANJI5
  0
TEXT
  8
0
  6
CONTINUOUS
 62
     1
 10
233.955
 20
195.387500318
 30
0.0
 40
1.75
  1
Ｃ
 50
0.0
 41
0.857142857
 51
0.0
  7
KANJI4
  0
LINE
  8
0
  6
CONTINUOUS
 62
     1
 10
232.41
 20
204.350000318
 30
0.0
 11
234.91
 21
204.350000318
 31
0.0
  0
TEXT
  8
0
  6
CONTINUOUS
 62
     1
 10
231.01
 20
203.600000318
 30
0.0
 40
1.5
  1
１
 50
0.0
 41
0.666666667
 51
0.0
  7
KANJI5
  0
LINE
  8
0
  6
CONTINUOUS
 62
     1
 10
233.66
 20
200.250000318
 30
0.0
 11
233.66
 21
199.850000318
 31
0.0
  0
TEXT
  8
0
  6
CONTINUOUS
 62
     1
 10
233.965
 20
202.350000318
 30
0.0
 40
1.75
  1
＋
 50
0.0
 41
0.857142857
 51
0.0
  7
KANJI4
  0
TEXT
  8
0
  6
CONTINUOUS
 62
     1
 10
230.835
 20
197.300000318
 30
0.0
 40
1.75
  1
ＯＵＴ１
 50
0.0
 41
0.857142857
 51
0.0
  7
KANJI4
  0
CIRCLE
  8
0
  6
CONTINUOUS
 62
     1
 10
231.41
 20
200.250000318
 30
0.0
 40
1.0
  0
CIRCLE
  8
0
  6
CONTINUOUS
 62
     1
 10
231.41
 20
196.150000318
 30
0.0
 40
1.0
  0
TEXT
  8
0
  6
CONTINUOUS
 62
     1
 10
230.91
 20
195.400000318
 30
0.0
 40
1.5
  1
３
 50
0.0
 41
0.666666667
 51
0.0
  7
KANJI5
  0
LINE
  8
0
  6
CONTINUOUS
 62
     1
 10
232.41
 20
200.250000318
 30
0.0
 11
233.66
 21
200.250000318
 31
0.0
  0
TEXT
  8
0
  6
CONTINUOUS
 62
     1
 10
231.01
 20
199.500000318
 30
0.0
 40
1.5
  1
２
 50
0.0
 41
0.666666667
 51
0.0
  7
KANJI5
  0
LINE
  8
0
  6
CONTINUOUS
 62
     1
 10
241.61
 20
196.150000318
 30
0.0
 11
241.61
 21
196.550000318
 31
0.0
  0
LINE
  8
0
  6
CONTINUOUS
 62
     1
 10
240.31
 20
196.150000318
 30
0.0
 11
241.61
 21
196.150000318
 31
0.0
  0
CIRCLE
  8
0
  6
CONTINUOUS
 62
     1
 10
239.31
 20
196.150000318
 30
0.0
 40
1.0
  0
TEXT
  8
0
  6
CONTINUOUS
 62
     1
 10
238.81
 20
195.400000318
 30
0.0
 40
1.5
  1
３
 50
0.0
 41
0.666666667
 51
0.0
  7
KANJI5
  0
TEXT
  8
0
  6
CONTINUOUS
 62
     1
 10
241.965
 20
195.462500318
 30
0.0
 40
1.75
  1
－
 50
0.0
 41
0.857142857
 51
0.0
  7
KANJI4
  0
TEXT
  8
0
  6
CONTINUOUS
 62
     1
 10
232.515
 20
184.370000318
 30
0.0
 40
1.75
  1
５０／６０Ｈｚ
 50
0.0
 41
0.857142857
 51
0.0
  7
KANJI4
  0
LINE
  8
0
  6
CONTINUOUS
 62
     1
 10
232.41
 20
187.950000318
 30
0.0
 11
235.46
 21
187.950000318
 31
0.0
  0
CIRCLE
  8
0
  6
CONTINUOUS
 62
     1
 10
235.4548
 20
190.273200318
 30
0.0
 40
1.0
  0
POLYLINE
  8
0
  6
CONTINUOUS
 62
     1
 66
     1
  0
VERTEX
  8
0
  6
CONTINUOUS
 62
     1
 10
235.4548
 20
190.273200318
 30
0.0
 42
0.034047162
  0
VERTEX
  8
0
  6
CONTINUOUS
 62
     1
 10
235.456017697
 20
190.255350822
 30
0.0
 42
0.033409405
  0
VERTEX
  8
0
  6
CONTINUOUS
 62
     1
 10
235.459661519
 20
190.237637171
 30
0.0
 42
0.032137402
  0
VERTEX
  8
0
  6
CONTINUOUS
 62
     1
 10
235.465703736
 20
190.220194178
 30
0.0
 42
0.030405183
  0
VERTEX
  8
0
  6
CONTINUOUS
 62
     1
 10
235.474098361
 20
190.203154593
 30
0.0
 42
0.028412288
  0
VERTEX
  8
0
  6
CONTINUOUS
 62
     1
 10
235.484781508
 20
190.186648098
 30
0.0
 42
0.026338643
  0
VERTEX
  8
0
  6
CONTINUOUS
 62
     1
 10
235.497671871
 20
190.170800318
 30
0.0
 42
0.024320308
  0
VERTEX
  8
0
  6
CONTINUOUS
 62
     1
 10
235.512671346
 20
190.155731864
 30
0.0
 42
0.022445219
  0
VERTEX
  8
0
  6
CONTINUOUS
 62
     1
 10
235.529665778
 20
190.141557416
 30
0.0
 42
0.020760795
  0
VERTEX
  8
0
  6
CONTINUOUS
 62
     1
 10
235.54852583
 20
190.128384849
 30
0.0
 42
0.019285494
  0
VERTEX
  8
0
  6
CONTINUOUS
 62
     1
 10
235.569107965
 20
190.116314416
 30
0.0
 42
0.018019589
  0
VERTEX
  8
0
  6
CONTINUOUS
 62
     1
 10
235.59125554
 20
190.105437979
 30
0.0
 42
0.016953412
  0
VERTEX
  8
0
  6
CONTINUOUS
 62
     1
 10
235.6148
 20
190.095838315
 30
0.0
 42
0.01607292
  0
VERTEX
  8
0
  6
CONTINUOUS
 62
     1
 10
235.639562156
 20
190.087588483
 30
0.0
 42
0.015363154
  0
VERTEX
  8
0
  6
CONTINUOUS
 62
     1
 10
235.665353554
 20
190.080751269
 30
0.0
 42
0.014810231
  0
VERTEX
  8
0
  6
CONTINUOUS
 62
     1
 10
235.691977906
 20
190.075378709
 30
0.0
 42
0.014402397
  0
VERTEX
  8
0
  6
CONTINUOUS
 62
     1
 10
235.719232583
 20
190.07151169
 30
0.0
 42
0.014130542
  0
VERTEX
  8
0
  6
CONTINUOUS
 62
     1
 10
235.746910162
 20
190.069179644
 30
0.0
 42
0.013988416
  0
VERTEX
  8
0
  6
CONTINUOUS
 62
     1
 10
235.7748
 20
190.068400318
 30
0.0
 42
0.013972701
  0
VERTEX
  8
0
  6
CONTINUOUS
 62
     1
 10
235.802689838
 20
190.069179644
 30
0.0
 42
0.014083028
  0
VERTEX
  8
0
  6
CONTINUOUS
 62
     1
 10
235.830367417
 20
190.07151169
 30
0.0
 42
0.014321979
  0
VERTEX
  8
0
  6
CONTINUOUS
 62
     1
 10
235.857622094
 20
190.075378709
 30
0.0
 42
0.014695074
  0
VERTEX
  8
0
  6
CONTINUOUS
 62
     1
 10
235.884246446
 20
190.080751269
 30
0.0
 42
0.01521072
  0
VERTEX
  8
0
  6
CONTINUOUS
 62
     1
 10
235.910037844
 20
190.087588483
 30
0.0
 42
0.015880044
  0
VERTEX
  8
0
  6
CONTINUOUS
 62
     1
 10
235.9348
 20
190.095838315
 30
0.0
 42
0.016716469
  0
VERTEX
  8
0
  6
CONTINUOUS
 62
     1
 10
235.95834446
 20
190.105437979
 30
0.0
 42
0.017734827
  0
VERTEX
  8
0
  6
CONTINUOUS
 62
     1
 10
235.980492035
 20
190.116314416
 30
0.0
 42
0.018949646
  0
VERTEX
  8
0
  6
CONTINUOUS
 62
     1
 10
236.00107417
 20
190.128384849
 30
0.0
 42
0.020372117
  0
VERTEX
  8
0
  6
CONTINUOUS
 62
     1
 10
236.019934222
 20
190.141557416
 30
0.0
 42
0.022005112
  0
VERTEX
  8
0
  6
CONTINUOUS
 62
     1
 10
236.036928654
 20
190.155731864
 30
0.0
 42
0.023835647
  0
VERTEX
  8
0
  6
CONTINUOUS
 62
     1
 10
236.051928129
 20
190.170800318
 30
0.0
 42
0.025824648
  0
VERTEX
  8
0
  6
CONTINUOUS
 62
     1
 10
236.064818492
 20
190.186648098
 30
0.0
 42
0.02789529
  0
VERTEX
  8
0
  6
CONTINUOUS
 62
     1
 10
236.075501639
 20
190.203154593
 30
0.0
 42
0.029923766
  0
VERTEX
  8
0
  6
CONTINUOUS
 62
     1
 10
236.083896264
 20
190.220194178
 30
0.0
 42
0.031739727
  0
VERTEX
  8
0
  6
CONTINUOUS
 62
     1
 10
236.089938481
 20
190.237637171
 30
0.0
 42
0.033145012
  0
VERTEX
  8
0
  6
CONTINUOUS
 62
     1
 10
236.093582303
 20
190.255350822
 30
0.0
 42
0.033954215
  0
VERTEX
  8
0
  6
CONTINUOUS
 62
     1
 10
236.0948
 20
190.273200318
 30
0.0
  0
SEQEND
  8
0
  6
CONTINUOUS
 62
     1
  0
LINE
  8
0
  6
CONTINUOUS
 62
     1
 10
232.36
 20
192.050000318
 30
0.0
 11
235.46
 21
192.050000318
 31
0.0
  0
LINE
  8
0
  6
CONTINUOUS
 62
     1
 10
235.46
 20
192.050000318
 30
0.0
 11
235.46
 21
191.250000318
 31
0.0
  0
POLYLINE
  8
0
  6
CONTINUOUS
 62
     1
 66
     1
  0
VERTEX
  8
0
  6
CONTINUOUS
 62
     1
 10
235.4548
 20
190.273200318
 30
0.0
 42
0.034047162
  0
VERTEX
  8
0
  6
CONTINUOUS
 62
     1
 10
235.453582303
 20
190.291049814
 30
0.0
 42
0.033409405
  0
VERTEX
  8
0
  6
CONTINUOUS
 62
     1
 10
235.449938481
 20
190.308763465
 30
0.0
 42
0.032137402
  0
VERTEX
  8
0
  6
CONTINUOUS
 62
     1
 10
235.443896264
 20
190.326206458
 30
0.0
 42
0.030405183
  0
VERTEX
  8
0
  6
CONTINUOUS
 62
     1
 10
235.435501639
 20
190.343246043
 30
0.0
 42
0.028412288
  0
VERTEX
  8
0
  6
CONTINUOUS
 62
     1
 10
235.424818492
 20
190.359752538
 30
0.0
 42
0.026338643
  0
VERTEX
  8
0
  6
CONTINUOUS
 62
     1
 10
235.411928129
 20
190.375600318
 30
0.0
 42
0.024320308
  0
VERTEX
  8
0
  6
CONTINUOUS
 62
     1
 10
235.396928654
 20
190.390668772
 30
0.0
 42
0.022445219
  0
VERTEX
  8
0
  6
CONTINUOUS
 62
     1
 10
235.379934222
 20
190.40484322
 30
0.0
 42
0.020760795
  0
VERTEX
  8
0
  6
CONTINUOUS
 62
     1
 10
235.36107417
 20
190.418015787
 30
0.0
 42
0.019285494
  0
VERTEX
  8
0
  6
CONTINUOUS
 62
     1
 10
235.340492035
 20
190.43008622
 30
0.0
 42
0.018019589
  0
VERTEX
  8
0
  6
CONTINUOUS
 62
     1
 10
235.31834446
 20
190.440962657
 30
0.0
 42
0.016953412
  0
VERTEX
  8
0
  6
CONTINUOUS
 62
     1
 10
235.2948
 20
190.450562321
 30
0.0
 42
0.01607292
  0
VERTEX
  8
0
  6
CONTINUOUS
 62
     1
 10
235.270037844
 20
190.458812153
 30
0.0
 42
0.015363154
  0
VERTEX
  8
0
  6
CONTINUOUS
 62
     1
 10
235.244246446
 20
190.465649367
 30
0.0
 42
0.014810231
  0
VERTEX
  8
0
  6
CONTINUOUS
 62
     1
 10
235.217622094
 20
190.471021927
 30
0.0
 42
0.014402397
  0
VERTEX
  8
0
  6
CONTINUOUS
 62
     1
 10
235.190367417
 20
190.474888946
 30
0.0
 42
0.014130542
  0
VERTEX
  8
0
  6
CONTINUOUS
 62
     1
 10
235.162689838
 20
190.477220992
 30
0.0
 42
0.013988416
  0
VERTEX
  8
0
  6
CONTINUOUS
 62
     1
 10
235.1348
 20
190.478000318
 30
0.0
 42
0.013972701
  0
VERTEX
  8
0
  6
CONTINUOUS
 62
     1
 10
235.106910162
 20
190.477220992
 30
0.0
 42
0.014083028
  0
VERTEX
  8
0
  6
CONTINUOUS
 62
     1
 10
235.079232583
 20
190.474888946
 30
0.0
 42
0.014321979
  0
VERTEX
  8
0
  6
CONTINUOUS
 62
     1
 10
235.051977906
 20
190.471021927
 30
0.0
 42
0.014695074
  0
VERTEX
  8
0
  6
CONTINUOUS
 62
     1
 10
235.025353554
 20
190.465649367
 30
0.0
 42
0.01521072
  0
VERTEX
  8
0
  6
CONTINUOUS
 62
     1
 10
234.999562156
 20
190.458812153
 30
0.0
 42
0.015880044
  0
VERTEX
  8
0
  6
CONTINUOUS
 62
     1
 10
234.9748
 20
190.450562321
 30
0.0
 42
0.016716469
  0
VERTEX
  8
0
  6
CONTINUOUS
 62
     1
 10
234.95125554
 20
190.440962657
 30
0.0
 42
0.017734827
  0
VERTEX
  8
0
  6
CONTINUOUS
 62
     1
 10
234.929107965
 20
190.43008622
 30
0.0
 42
0.018949646
  0
VERTEX
  8
0
  6
CONTINUOUS
 62
     1
 10
234.90852583
 20
190.418015787
 30
0.0
 42
0.020372117
  0
VERTEX
  8
0
  6
CONTINUOUS
 62
     1
 10
234.889665778
 20
190.40484322
 30
0.0
 42
0.022005112
  0
VERTEX
  8
0
  6
CONTINUOUS
 62
     1
 10
234.872671346
 20
190.390668772
 30
0.0
 42
0.023835647
  0
VERTEX
  8
0
  6
CONTINUOUS
 62
     1
 10
234.857671871
 20
190.375600318
 30
0.0
 42
0.025824648
  0
VERTEX
  8
0
  6
CONTINUOUS
 62
     1
 10
234.844781508
 20
190.359752538
 30
0.0
 42
0.02789529
  0
VERTEX
  8
0
  6
CONTINUOUS
 62
     1
 10
234.834098361
 20
190.343246043
 30
0.0
 42
0.029923766
  0
VERTEX
  8
0
  6
CONTINUOUS
 62
     1
 10
234.825703736
 20
190.326206458
 30
0.0
 42
0.031739727
  0
VERTEX
  8
0
  6
CONTINUOUS
 62
     1
 10
234.819661519
 20
190.308763465
 30
0.0
 42
0.033145012
  0
VERTEX
  8
0
  6
CONTINUOUS
 62
     1
 10
234.816017697
 20
190.291049814
 30
0.0
 42
0.033954215
  0
VERTEX
  8
0
  6
CONTINUOUS
 62
     1
 10
234.8148
 20
190.273200318
 30
0.0
  0
SEQEND
  8
0
  6
CONTINUOUS
 62
     1
  0
LINE
  8
0
  6
CONTINUOUS
 62
     1
 10
235.46
 20
187.950000318
 30
0.0
 11
235.46
 21
189.325000318
 31
0.0
  0
TEXT
  8
0
  6
CONTINUOUS
 62
     1
 10
232.515
 20
182.705000318
 30
0.0
 40
1.75
  1
１０ＶＡ
 50
0.0
 41
0.857142857
 51
0.0
  7
KANJI4
  0
TEXT
  8
0
  6
CONTINUOUS
 62
     1
 10
229.8115
 20
179.348000318
 30
0.0
 40
1.75
  1
ＴＴＭ－
 50
0.0
 41
0.857142857
 51
0.0
  7
KANJI4
  0
TEXT
  8
0
  6
CONTINUOUS
 62
     1
 10
230.0715
 20
175.158000318
 30
0.0
 40
1.75
  1
ＳＥＲＩＡＬ
 50
0.0
 41
0.857142857
 51
0.0
  7
KANJI4
  0
TEXT
  8
0
  6
CONTINUOUS
 62
     1
 10
230.0715
 20
173.233000318
 30
0.0
 40
1.75
  1
Ｎｏ．
 50
0.0
 41
0.857142857
 51
0.0
  7
KANJI4
  0
TEXT
  8
0
  6
CONTINUOUS
 62
     1
 10
237.0965
 20
170.383000318
 30
0.0
 40
1.75
  1
ＴＯＨＯ　ＥＬＥＣＴＲＯＮＩＣＳ　ＩＮＣ．
 50
0.0
 41
0.685714286
 51
0.0
  7
KANJI8
  0
TEXT
  8
0
  6
CONTINUOUS
 62
     1
 10
243.3165
 20
168.313000318
 30
0.0
 40
1.75
  1
ＭＡＤＥ　ＩＮ　ＪＡＰＡＮ
 50
0.0
 41
0.485714286
 51
0.0
  7
KANJI9
  0
LINE
  8
0
  6
CONTINUOUS
 62
     1
 10
252.76
 20
196.450000318
 30
0.0
 11
252.76
 21
196.050000318
 31
0.0
  0
LINE
  8
0
  6
CONTINUOUS
 62
     1
 10
251.535
 20
196.050000318
 30
0.0
 11
252.76
 21
196.050000318
 31
0.0
  0
CIRCLE
  8
0
  6
CONTINUOUS
 62
     1
 10
250.535
 20
196.100000318
 30
0.0
 40
1.0
  0
TEXT
  8
0
  6
CONTINUOUS
 62
     1
 10
250.085
 20
195.350000318
 30
0.0
 40
1.5
  1
８
 50
0.0
 41
0.666666667
 51
0.0
  7
KANJI5
  0
LINE
  8
0
  6
CONTINUOUS
 62
     1
 10
252.76
 20
191.575000318
 30
0.0
 11
252.76
 21
191.975000318
 31
0.0
  0
LINE
  8
0
  6
CONTINUOUS
 62
     1
 10
251.535
 20
191.975000318
 30
0.0
 11
252.76
 21
191.975000318
 31
0.0
  0
CIRCLE
  8
0
  6
CONTINUOUS
 62
     1
 10
250.535
 20
192.000000318
 30
0.0
 40
1.0
  0
TEXT
  8
0
  6
CONTINUOUS
 62
     1
 10
250.085
 20
191.250000318
 30
0.0
 40
1.5
  1
９
 50
0.0
 41
0.666666667
 51
0.0
  7
KANJI5
  0
LINE
  8
0
  6
CONTINUOUS
 62
     1
 10
252.76
 20
188.250000318
 30
0.0
 11
252.76
 21
187.850000318
 31
0.0
  0
LINE
  8
0
  6
CONTINUOUS
 62
     1
 10
251.535
 20
187.850000318
 30
0.0
 11
252.76
 21
187.850000318
 31
0.0
  0
CIRCLE
  8
0
  6
CONTINUOUS
 62
     1
 10
250.535
 20
187.900000318
 30
0.0
 40
1.0
  0
TEXT
  8
0
  6
CONTINUOUS
 62
     1
 10
249.935
 20
187.200000318
 30
0.0
 40
1.5
  1
１０
 50
0.0
 41
0.4
 51
0.0
  7
KANJI7
  0
TEXT
  8
0
  6
CONTINUOUS
 62
     1
 10
253.005
 20
195.300000318
 30
0.0
 40
1.75
  1
（Ｂ）
 50
0.0
 41
0.857142857
 51
0.0
  7
KANJI4
  0
TEXT
  8
0
  6
CONTINUOUS
 62
     1
 10
251.415
 20
193.887500318
 30
0.0
 40
1.75
  1
－
 50
0.0
 41
0.857142857
 51
0.0
  7
KANJI4
  0
TEXT
  8
0
  6
CONTINUOUS
 62
     1
 10
249.835
 20
197.250000318
 30
0.0
 40
1.75
  1
ＲＳ４８５
 50
0.0
 41
0.714285714
 51
0.0
  7
KANJI10
  0
TEXT
  8
0
  6
CONTINUOUS
 62
     1
 10
249.935
 20
189.100000318
 30
0.0
 40
1.75
  1
ＤＩ／ＣＴ
 50
0.0
 41
0.714285714
 51
0.0
  7
KANJI10
  0
CIRCLE
  8
0
  6
CONTINUOUS
 62
     1
 10
257.11
 20
196.150000318
 30
0.0
 40
1.0
  0
TEXT
  8
0
  6
CONTINUOUS
 62
     1
 10
256.585
 20
195.410000318
 30
0.0
 40
1.5
  1
１３
 50
0.0
 41
0.4
 51
0.0
  7
KANJI7
  0
CIRCLE
  8
0
  6
CONTINUOUS
 62
     1
 10
257.11
 20
192.050000318
 30
0.0
 40
1.0
  0
TEXT
  8
0
  6
CONTINUOUS
 62
     1
 10
256.56
 20
191.310000318
 30
0.0
 40
1.5
  1
１４
 50
0.0
 41
0.4
 51
0.0
  7
KANJI7
  0
CIRCLE
  8
0
  6
CONTINUOUS
 62
     1
 10
257.11
 20
187.950000318
 30
0.0
 40
1.0
  0
TEXT
  8
0
  6
CONTINUOUS
 62
     1
 10
256.56
 20
187.210000318
 30
0.0
 40
1.5
  1
１５
 50
0.0
 41
0.4
 51
0.0
  7
KANJI7
  0
TEXT
  8
0
  6
CONTINUOUS
 62
     1
 10
232.565
 20
186.150000318
 30
0.0
 40
1.75
  1
１００－２４０Ｖａｃ～
 50
0.0
 41
0.857142857
 51
0.0
  7
KANJI4
  0
TEXT
  8
0
  6
CONTINUOUS
 62
     1
 10
258.275
 20
197.925000318
 30
0.0
 40
1.5
  1
ＴＣ
 50
0.0
 41
0.666666667
 51
0.0
  7
KANJI5
  0
TEXT
  8
0
  6
CONTINUOUS
 62
     1
 10
260.76
 20
197.950000318
 30
0.0
 40
1.5
  1
ＲＴＤ
 50
0.0
 41
0.666666667
 51
0.0
  7
KANJI5
  0
CIRCLE
  8
0
  6
CONTINUOUS
 62
     1
 10
266.91
 20
196.150000318
 30
0.0
 40
1.0
  0
CIRCLE
  8
0
  6
CONTINUOUS
 62
     1
 10
266.91
 20
187.950000318
 30
0.0
 40
1.0
  0
TEXT
  8
0
  6
CONTINUOUS
 62
     1
 10
266.475
 20
195.575000318
 30
0.0
 40
1.5
  1
－
 50
0.0
 41
0.666666667
 51
0.0
  7
KANJI5
  0
TEXT
  8
0
  6
CONTINUOUS
 62
     1
 10
266.475
 20
187.275000318
 30
0.0
 40
1.5
  1
＋
 50
0.0
 41
0.666666667
 51
0.0
  7
KANJI5
  0
TEXT
  8
0
  6
CONTINUOUS
 62
     1
 10
266.275
 20
197.925000318
 30
0.0
 40
1.5
  1
Ｉ
 50
0.0
 41
1.0
 51
0.0
  7
KANJI11
  0
TEXT
  8
0
  6
CONTINUOUS
 62
     1
 10
263.96
 20
197.950000318
 30
0.0
 40
1.5
  1
Ｖ
 50
0.0
 41
1.0
 51
0.0
  7
KANJI11
  0
CIRCLE
  8
0
  6
CONTINUOUS
 62
     1
 10
264.46
 20
196.150000318
 30
0.0
 40
1.0
  0
CIRCLE
  8
0
  6
CONTINUOUS
 62
     1
 10
264.46
 20
192.050000318
 30
0.0
 40
1.0
  0
TEXT
  8
0
  6
CONTINUOUS
 62
     1
 10
263.975
 20
195.525000318
 30
0.0
 40
1.5
  1
－
 50
0.0
 41
0.666666667
 51
0.0
  7
KANJI5
  0
TEXT
  8
0
  6
CONTINUOUS
 62
     1
 10
263.975
 20
191.325000318
 30
0.0
 40
1.5
  1
＋
 50
0.0
 41
0.666666667
 51
0.0
  7
KANJI5
  0
CIRCLE
  8
0
  6
CONTINUOUS
 62
     1
 10
261.96
 20
196.150000318
 30
0.0
 40
1.0
  0
CIRCLE
  8
0
  6
CONTINUOUS
 62
     1
 10
261.96
 20
192.050000318
 30
0.0
 40
1.0
  0
CIRCLE
  8
0
  6
CONTINUOUS
 62
     1
 10
261.96
 20
187.950000318
 30
0.0
 40
1.0
  0
TEXT
  8
0
  6
CONTINUOUS
 62
     1
 10
261.575
 20
195.475000318
 30
0.0
 40
1.5
  1
ｂ
 50
0.0
 41
0.666666667
 51
0.0
  7
KANJI5
  0
TEXT
  8
0
  6
CONTINUOUS
 62
     1
 10
261.575
 20
191.275000318
 30
0.0
 40
1.5
  1
Ｂ
 50
0.0
 41
0.666666667
 51
0.0
  7
KANJI5
  0
CIRCLE
  8
0
  6
CONTINUOUS
 62
     1
 10
259.46
 20
196.150000318
 30
0.0
 40
1.0
  0
CIRCLE
  8
0
  6
CONTINUOUS
 62
     1
 10
259.46
 20
192.050000318
 30
0.0
 40
1.0
  0
TEXT
  8
0
  6
CONTINUOUS
 62
     1
 10
258.925
 20
195.575000318
 30
0.0
 40
1.5
  1
－
 50
0.0
 41
0.666666667
 51
0.0
  7
KANJI5
  0
TEXT
  8
0
  6
CONTINUOUS
 62
     1
 10
258.925
 20
191.425000318
 30
0.0
 40
1.5
  1
＋
 50
0.0
 41
0.666666667
 51
0.0
  7
KANJI5
  0
TEXT
  8
0
  6
CONTINUOUS
 62
     1
 10
261.575
 20
187.225000318
 30
0.0
 40
1.5
  1
Ａ
 50
0.0
 41
0.666666667
 51
0.0
  7
KANJI5
  0
POLYLINE
  8
0
  6
CONTINUOUS
 62
     2
 66
     1
  0
VERTEX
  8
0
  6
CONTINUOUS
 62
     2
 10
250.076884
 20
185.943822227
 30
0.0
  0
VERTEX
  8
0
  6
CONTINUOUS
 62
     2
 10
250.249684
 20
185.943822227
 30
0.0
  0
VERTEX
  8
0
  6
CONTINUOUS
 62
     2
 10
250.249684
 20
185.943822227
 30
0.0
  0
SEQEND
  0
LINE
  8
0
  6
CONTINUOUS
 62
     2
 10
257.449981562
 20
186.349983789
 30
0.0
 11
257.449981562
 21
183.134414944
 31
0.0
  0
POINT
  8
0
  6
CONTINUOUS
 62
     2
 10
254.918576301
 20
185.665820205
 30
0.0
  0
LINE
  8
0
  6
CONTINUOUS
 62
     2
 10
256.628985261
 20
185.528987488
 30
0.0
 11
255.055409018
 21
185.528987488
 31
0.0
  0
LINE
  8
0
  6
CONTINUOUS
 62
     2
 10
255.055409018
 20
185.528987488
 30
0.0
 11
255.055409018
 21
183.955411245
 31
0.0
  0
LINE
  8
0
  6
CONTINUOUS
 62
     2
 10
255.055409018
 20
183.955411245
 30
0.0
 11
256.628985261
 21
183.955411245
 31
0.0
  0
LINE
  8
0
  6
CONTINUOUS
 62
     2
 10
256.628985261
 20
183.955411245
 30
0.0
 11
256.628985261
 21
185.528987488
 31
0.0
  0
POINT
  8
0
  6
CONTINUOUS
 62
     2
 10
256.628985261
 20
185.528987488
 30
0.0
  0
LINE
  8
0
  6
CONTINUOUS
 62
     2
 10
257.586814278
 20
186.486816506
 30
0.0
 11
257.586814278
 21
182.997582227
 31
0.0
  0
LINE
  8
0
  6
CONTINUOUS
 62
     2
 10
256.765817978
 20
185.665820205
 30
0.0
 11
254.918576301
 21
185.665820205
 31
0.0
  0
LINE
  8
0
  6
CONTINUOUS
 62
     2
 10
250.249684
 20
185.943822227
 30
0.0
 11
250.249684
 21
186.453560519
 31
0.0
  0
LINE
  8
0
  6
CONTINUOUS
 62
     2
 10
249.521329259
 20
186.370481048
 30
0.0
 11
248.440625179
 21
185.289776969
 31
0.0
  0
LINE
  8
0
  6
CONTINUOUS
 62
     2
 10
248.364013508
 20
184.506058517
 30
0.0
 11
248.909704147
 21
185.051749155
 31
0.0
  0
LINE
  8
0
  6
CONTINUOUS
 62
     2
 10
249.759357072
 20
185.901402081
 30
0.0
 11
250.249684
 21
186.391729009
 31
0.0
  0
LINE
  8
0
  6
CONTINUOUS
 62
     2
 10
248.926243702
 20
184.361181929
 30
0.0
 11
248.529711625
 21
183.964649852
 31
0.0
  0
LINE
  8
0
  6
CONTINUOUS
 62
     2
 10
249.521329259
 20
186.370481048
 30
0.0
 11
248.440625179
 21
185.289776969
 31
0.0
  0
LINE
  8
0
  6
CONTINUOUS
 62
     2
 10
248.352650265
 20
184.848248665
 30
0.0
 11
249.962857563
 21
186.458455962
 31
0.0
  0
LINE
  8
0
  6
CONTINUOUS
 62
     2
 10
250.249684
 20
186.391729009
 30
0.0
 11
249.759357072
 21
185.901402081
 31
0.0
  0
LINE
  8
0
  6
CONTINUOUS
 62
     2
 10
248.909704147
 20
185.051749155
 30
0.0
 11
248.364013508
 21
184.506058517
 31
0.0
  0
LINE
  8
0
  6
CONTINUOUS
 62
     2
 10
248.428202969
 20
184.216694587
 30
0.0
 11
248.869677285
 21
184.658168903
 31
0.0
  0
LINE
  8
0
  6
CONTINUOUS
 62
     2
 10
250.155330609
 20
185.943822227
 30
0.0
 11
250.249684
 21
186.038175618
 31
0.0
  0
LINE
  8
0
  6
CONTINUOUS
 62
     2
 10
248.926243702
 20
184.361181929
 30
0.0
 11
248.529711625
 21
183.964649852
 31
0.0
  0
LINE
  8
0
  6
CONTINUOUS
 62
     2
 10
249.407398899
 20
186.327261367
 30
0.0
 11
248.483844861
 21
185.403707329
 31
0.0
  0
LINE
  8
0
  6
CONTINUOUS
 62
     2
 10
248.386883452
 20
185.094613885
 30
0.0
 11
249.716492342
 21
186.424222776
 31
0.0
  0
LINE
  8
0
  6
CONTINUOUS
 62
     2
 10
249.962857563
 20
186.458455962
 30
0.0
 11
248.352650265
 21
184.848248665
 31
0.0
  0
LINE
  8
0
  6
CONTINUOUS
 62
     2
 10
248.351724092
 20
184.635190457
 30
0.0
 11
248.99831494
 21
185.281781305
 31
0.0
  0
LINE
  8
0
  6
CONTINUOUS
 62
     2
 10
249.529324922
 20
185.812791287
 30
0.0
 11
250.175915771
 21
186.459382136
 31
0.0
  0
LINE
  8
0
  6
CONTINUOUS
 62
     2
 10
250.249684
 20
186.321018331
 30
0.0
 11
249.851258813
 21
185.922593144
 31
0.0
  0
LINE
  8
0
  6
CONTINUOUS
 62
     2
 10
248.888513084
 20
184.959847414
 30
0.0
 11
248.373318964
 21
184.444653294
 31
0.0
  0
LINE
  8
0
  6
CONTINUOUS
 62
     2
 10
248.41205691
 20
184.271259206
 30
0.0
 11
248.867308581
 21
184.726510877
 31
0.0
  0
LINE
  8
0
  6
CONTINUOUS
 62
     2
 10
250.084619931
 20
185.943822227
 30
0.0
 11
250.249684
 21
186.108886296
 31
0.0
  0
LINE
  8
0
  6
CONTINUOUS
 62
     2
 10
248.884397954
 20
184.531468216
 30
0.0
 11
248.464834191
 21
184.111904453
 31
0.0
  0
LINE
  8
0
  6
CONTINUOUS
 62
     2
 10
248.529711625
 20
183.964649852
 30
0.0
 11
248.926243702
 21
184.361181929
 31
0.0
  0
LINE
  8
0
  6
CONTINUOUS
 62
     2
 10
253.014484
 20
185.943822227
 30
0.0
 11
253.187284
 21
185.943822227
 31
0.0
  0
LINE
  8
0
  6
CONTINUOUS
 62
     2
 10
252.841684
 20
184.993422227
 30
0.0
 11
252.841684
 21
184.475022227
 31
0.0
  0
POINT
  8
0
  6
CONTINUOUS
 62
     2
 10
252.841684
 20
184.475022227
 30
0.0
  0
LINE
  8
0
  6
CONTINUOUS
 62
     2
 10
252.841684
 20
184.475022227
 30
0.0
 11
251.83298177
 21
184.475022227
 31
0.0
  0
LINE
  8
0
  6
CONTINUOUS
 62
     2
 10
253.187284
 20
185.931415746
 30
0.0
 11
253.187284
 21
186.453560519
 31
0.0
  0
LINE
  8
0
  6
CONTINUOUS
 62
     2
 10
251.83298177
 20
184.993422227
 30
0.0
 11
252.841684
 21
184.993422227
 31
0.0
  0
ARC
  8
0
  6
CONTINUOUS
 62
     2
 10
253.014484
 20
184.734222227
 30
0.0
 40
1.2096
 50
81.786789299
 51
167.626374884
  0
LINE
  8
0
  6
CONTINUOUS
 62
     2
 10
251.378225179
 20
185.289776969
 30
0.0
 11
252.458929259
 21
186.370481048
 31
0.0
  0
LINE
  8
0
  6
CONTINUOUS
 62
     2
 10
253.187284
 20
186.391729009
 30
0.0
 11
252.696957072
 21
185.901402081
 31
0.0
  0
LINE
  8
0
  6
CONTINUOUS
 62
     2
 10
251.847304147
 20
185.051749155
 30
0.0
 11
251.301613508
 21
184.506058517
 31
0.0
  0
LINE
  8
0
  6
CONTINUOUS
 62
     2
 10
251.467311625
 20
183.964649852
 30
0.0
 11
251.863843702
 21
184.361181929
 31
0.0
  0
LINE
  8
0
  6
CONTINUOUS
 62
     2
 10
251.977684
 20
184.475022227
 30
0.0
 11
252.496084
 21
184.993422227
 31
0.0
  0
LINE
  8
0
  6
CONTINUOUS
 62
     2
 10
252.841684
 20
184.631915446
 30
0.0
 11
252.684790781
 21
184.475022227
 31
0.0
  0
LINE
  8
0
  6
CONTINUOUS
 62
     2
 10
251.378225179
 20
185.289776969
 30
0.0
 11
252.458929259
 21
186.370481048
 31
0.0
  0
LINE
  8
0
  6
CONTINUOUS
 62
     2
 10
252.900457563
 20
186.458455962
 30
0.0
 11
251.290250265
 21
184.848248665
 31
0.0
  0
LINE
  8
0
  6
CONTINUOUS
 62
     2
 10
251.301613508
 20
184.506058517
 30
0.0
 11
251.847304147
 21
185.051749155
 31
0.0
  0
LINE
  8
0
  6
CONTINUOUS
 62
     2
 10
252.696957072
 20
185.901402081
 30
0.0
 11
253.187284
 21
186.391729009
 31
0.0
  0
LINE
  8
0
  6
CONTINUOUS
 62
     2
 10
253.187284
 20
186.038175618
 30
0.0
 11
253.092930609
 21
185.943822227
 31
0.0
  0
LINE
  8
0
  6
CONTINUOUS
 62
     2
 10
252.142530609
 20
184.993422227
 30
0.0
 11
251.365802969
 21
184.216694587
 31
0.0
  0
LINE
  8
0
  6
CONTINUOUS
 62
     2
 10
251.467311625
 20
183.964649852
 30
0.0
 11
251.863843702
 21
184.361181929
 31
0.0
  0
LINE
  8
0
  6
CONTINUOUS
 62
     2
 10
251.977684
 20
184.475022227
 30
0.0
 11
252.496084
 21
184.993422227
 31
0.0
  0
LINE
  8
0
  6
CONTINUOUS
 62
     2
 10
252.841684
 20
184.985468837
 30
0.0
 11
252.331237391
 21
184.475022227
 31
0.0
  0
LINE
  8
0
  6
CONTINUOUS
 62
     2
 10
252.684790781
 20
184.475022227
 30
0.0
 11
252.841684
 21
184.631915446
 31
0.0
  0
LINE
  8
0
  6
CONTINUOUS
 62
     2
 10
252.344998899
 20
186.327261367
 30
0.0
 11
251.421444861
 21
185.403707329
 31
0.0
  0
LINE
  8
0
  6
CONTINUOUS
 62
     2
 10
251.324483452
 20
185.094613885
 30
0.0
 11
252.654092342
 21
186.424222776
 31
0.0
  0
LINE
  8
0
  6
CONTINUOUS
 62
     2
 10
252.900457563
 20
186.458455962
 30
0.0
 11
251.290250265
 21
184.848248665
 31
0.0
  0
LINE
  8
0
  6
CONTINUOUS
 62
     2
 10
251.289324092
 20
184.635190457
 30
0.0
 11
251.93591494
 21
185.281781305
 31
0.0
  0
LINE
  8
0
  6
CONTINUOUS
 62
     2
 10
252.466924922
 20
185.812791287
 30
0.0
 11
253.113515771
 21
186.459382136
 31
0.0
  0
LINE
  8
0
  6
CONTINUOUS
 62
     2
 10
253.187284
 20
186.321018331
 30
0.0
 11
252.788858813
 21
185.922593144
 31
0.0
  0
LINE
  8
0
  6
CONTINUOUS
 62
     2
 10
251.859687897
 20
184.993422227
 30
0.0
 11
251.310918964
 21
184.444653294
 31
0.0
  0
LINE
  8
0
  6
CONTINUOUS
 62
     2
 10
251.34965691
 20
184.271259206
 30
0.0
 11
252.071819931
 21
184.993422227
 31
0.0
  0
LINE
  8
0
  6
CONTINUOUS
 62
     2
 10
253.022195351
 20
185.943797647
 30
0.0
 11
253.187284
 21
186.108886296
 31
0.0
  0
LINE
  8
0
  6
CONTINUOUS
 62
     2
 10
252.283951966
 20
184.993422227
 30
0.0
 11
251.402434191
 21
184.111904453
 31
0.0
  0
LINE
  8
0
  6
CONTINUOUS
 62
     2
 10
251.467311625
 20
183.964649852
 30
0.0
 11
251.863843702
 21
184.361181929
 31
0.0
  0
LINE
  8
0
  6
CONTINUOUS
 62
     2
 10
251.977684
 20
184.475022227
 30
0.0
 11
252.496084
 21
184.993422227
 31
0.0
  0
LINE
  8
0
  6
CONTINUOUS
 62
     2
 10
252.708216034
 20
184.993422227
 30
0.0
 11
252.189816034
 21
184.475022227
 31
0.0
  0
LINE
  8
0
  6
CONTINUOUS
 62
     2
 10
252.401948069
 20
184.475022227
 30
0.0
 11
252.841684
 21
184.914758159
 31
0.0
  0
LINE
  8
0
  6
CONTINUOUS
 62
     2
 10
252.841684
 20
184.702626124
 30
0.0
 11
252.614080103
 21
184.475022227
 31
0.0
  0
LINE
  8
0
  6
CONTINUOUS
 62
     2
 10
252.826212137
 20
184.475022227
 30
0.0
 11
252.841684
 21
184.49049409
 31
0.0
  0
LINE
  8
0
  6
CONTINUOUS
 62
     2
 10
254.234412717
 20
186.349983789
 30
0.0
 11
257.449981562
 21
186.349983789
 31
0.0
  0
LINE
  8
0
  6
CONTINUOUS
 62
     2
 10
254.09758
 20
186.486816506
 30
0.0
 11
257.586814278
 21
186.486816506
 31
0.0
  0
POLYLINE
  8
0
  6
CONTINUOUS
 62
     2
 66
     1
  0
VERTEX
  8
0
  6
CONTINUOUS
 62
     2
 10
256.765817978
 20
183.818578528
 30
0.0
  0
VERTEX
  8
0
  6
CONTINUOUS
 62
     2
 10
256.765817978
 20
183.818578528
 30
0.0
  0
VERTEX
  8
0
  6
CONTINUOUS
 62
     2
 10
256.765817978
 20
185.665820205
 30
0.0
  0
SEQEND
  0
POLYLINE
  8
0
  6
CONTINUOUS
 62
     2
 66
     1
  0
VERTEX
  8
0
  6
CONTINUOUS
 62
     2
 10
250.076884
 20
183.006222227
 30
0.0
  0
VERTEX
  8
0
  6
CONTINUOUS
 62
     2
 10
250.249684
 20
183.006222227
 30
0.0
  0
VERTEX
  8
0
  6
CONTINUOUS
 62
     2
 10
250.249684
 20
183.006222227
 30
0.0
  0
SEQEND
  0
LINE
  8
0
  6
CONTINUOUS
 62
     2
 10
250.046426181
 20
183.006490674
 30
0.0
 11
250.249684
 21
183.209748493
 31
0.0
  0
LINE
  8
0
  6
CONTINUOUS
 62
     2
 10
250.116868412
 20
183.006222227
 30
0.0
 11
250.249684
 21
183.139037815
 31
0.0
  0
LINE
  8
0
  6
CONTINUOUS
 62
     2
 10
253.014484
 20
183.006222227
 30
0.0
 11
253.187284
 21
183.006222227
 31
0.0
  0
LINE
  8
0
  6
CONTINUOUS
 62
     2
 10
253.187284
 20
183.209748493
 30
0.0
 11
252.984026181
 21
183.006490674
 31
0.0
  0
LINE
  8
0
  6
CONTINUOUS
 62
     2
 10
253.054468412
 20
183.006222227
 30
0.0
 11
253.187284
 21
183.139037815
 31
0.0
  0
LINE
  8
0
  6
CONTINUOUS
 62
     2
 10
250.249684
 20
183.006222227
 30
0.0
 11
250.249684
 21
183.524622227
 31
0.0
  0
POINT
  8
0
  6
CONTINUOUS
 62
     2
 10
250.249684
 20
183.524622227
 30
0.0
  0
LINE
  8
0
  6
CONTINUOUS
 62
     2
 10
250.249684
 20
183.524622227
 30
0.0
 11
250.076884
 21
183.524622227
 31
0.0
  0
ARC
  8
0
  6
CONTINUOUS
 62
     2
 10
250.076884
 20
184.734222227
 30
0.0
 40
1.2096
 50
90.0
 51
270.0
  0
LINE
  8
0
  6
CONTINUOUS
 62
     2
 10
254.09758
 20
182.997582227
 30
0.0
 11
254.09758
 21
186.486816506
 31
0.0
  0
LINE
  8
0
  6
CONTINUOUS
 62
     2
 10
254.234412717
 20
183.134414944
 30
0.0
 11
254.234412717
 21
186.349983789
 31
0.0
  0
ARC
  8
0
  6
CONTINUOUS
 62
     2
 10
250.076884
 20
184.734222227
 30
0.0
 40
1.728
 50
84.260829523
 51
270.0
  0
LINE
  8
0
  6
CONTINUOUS
 62
     2
 10
248.820265344
 20
183.54809679
 30
0.0
 11
249.187047573
 21
183.914879019
 31
0.0
  0
LINE
  8
0
  6
CONTINUOUS
 62
     2
 10
249.601309888
 20
183.622034553
 30
0.0
 11
249.21549896
 21
183.236223625
 31
0.0
  0
LINE
  8
0
  6
CONTINUOUS
 62
     2
 10
249.72815811
 20
183.041775994
 30
0.0
 11
250.211004344
 21
183.524622227
 31
0.0
  0
LINE
  8
0
  6
CONTINUOUS
 62
     2
 10
248.66151614
 20
183.742900977
 30
0.0
 11
249.036240035
 21
184.117624872
 31
0.0
  0
LINE
  8
0
  6
CONTINUOUS
 62
     2
 10
249.187047573
 20
183.914879019
 30
0.0
 11
248.820265344
 21
183.54809679
 31
0.0
  0
LINE
  8
0
  6
CONTINUOUS
 62
     2
 10
249.004757942
 20
183.379035998
 30
0.0
 11
249.374888559
 21
183.749166615
 31
0.0
  0
LINE
  8
0
  6
CONTINUOUS
 62
     2
 10
249.601309888
 20
183.622034553
 30
0.0
 11
249.21549896
 21
183.236223625
 31
0.0
  0
LINE
  8
0
  6
CONTINUOUS
 62
     2
 10
249.454880035
 20
183.12205131
 30
0.0
 11
249.874501756
 21
183.54167303
 31
0.0
  0
LINE
  8
0
  6
CONTINUOUS
 62
     2
 10
250.211004344
 20
183.524622227
 30
0.0
 11
249.72815811
 21
183.041775994
 31
0.0
  0
LINE
  8
0
  6
CONTINUOUS
 62
     2
 10
248.986915494
 20
184.209721687
 30
0.0
 11
248.60543075
 21
183.828236944
 31
0.0
  0
LINE
  8
0
  6
CONTINUOUS
 62
     2
 10
248.691174914
 20
183.701849073
 30
0.0
 11
249.063344174
 21
184.074018333
 31
0.0
  0
LINE
  8
0
  6
CONTINUOUS
 62
     2
 10
249.153884583
 20
183.952426707
 30
0.0
 11
248.786442978
 21
183.584985103
 31
0.0
  0
LINE
  8
0
  6
CONTINUOUS
 62
     2
 10
248.890982317
 20
183.477392407
 30
0.0
 11
249.257767248
 21
183.844177338
 31
0.0
  0
LINE
  8
0
  6
CONTINUOUS
 62
     2
 10
249.374888559
 20
183.749166615
 30
0.0
 11
249.004757942
 21
183.379035998
 31
0.0
  0
LINE
  8
0
  6
CONTINUOUS
 62
     2
 10
249.127948378
 20
183.290094399
 30
0.0
 11
249.505784647
 21
183.667930668
 31
0.0
  0
LINE
  8
0
  6
CONTINUOUS
 62
     2
 10
249.651771965
 20
183.601785952
 30
0.0
 11
249.260967091
 21
183.210981078
 31
0.0
  0
LINE
  8
0
  6
CONTINUOUS
 62
     2
 10
249.404515834
 20
183.142397787
 30
0.0
 11
249.815352046
 21
183.553233998
 31
0.0
  0
LINE
  8
0
  6
CONTINUOUS
 62
     2
 10
250.001239884
 20
183.526989803
 30
0.0
 11
249.5596874
 21
183.085437318
 31
0.0
  0
LINE
  8
0
  6
CONTINUOUS
 62
     2
 10
249.72815811
 20
183.041775994
 30
0.0
 11
250.211004344
 21
183.524622227
 31
0.0
  0
LINE
  8
0
  6
CONTINUOUS
 62
     2
 10
250.249684
 20
183.35116985
 30
0.0
 11
249.912566672
 21
183.014052522
 31
0.0
  0
LINE
  8
0
  6
CONTINUOUS
 62
     2
 10
253.187284
 20
183.006222227
 30
0.0
 11
253.187284
 21
183.524622227
 31
0.0
  0
POINT
  8
0
  6
CONTINUOUS
 62
     2
 10
253.187284
 20
183.524622227
 30
0.0
  0
LINE
  8
0
  6
CONTINUOUS
 62
     2
 10
253.187284
 20
183.524622227
 30
0.0
 11
253.014484
 21
183.524622227
 31
0.0
  0
ARC
  8
0
  6
CONTINUOUS
 62
     2
 10
253.014484
 20
184.734222227
 30
0.0
 40
1.2096
 50
192.373625116
 51
270.0
  0
ARC
  8
0
  6
CONTINUOUS
 62
     2
 10
253.014484
 20
184.734222227
 30
0.0
 40
1.728
 50
84.260829523
 51
270.0
  0
LINE
  8
0
  6
CONTINUOUS
 62
     2
 10
252.124647573
 20
183.914879019
 30
0.0
 11
251.757865344
 21
183.54809679
 31
0.0
  0
LINE
  8
0
  6
CONTINUOUS
 62
     2
 10
252.15309896
 20
183.236223625
 30
0.0
 11
252.538909888
 21
183.622034553
 31
0.0
  0
LINE
  8
0
  6
CONTINUOUS
 62
     2
 10
253.148604344
 20
183.524622227
 30
0.0
 11
252.66575811
 21
183.041775994
 31
0.0
  0
LINE
  8
0
  6
CONTINUOUS
 62
     2
 10
251.973840035
 20
184.117624872
 30
0.0
 11
251.59911614
 21
183.742900977
 31
0.0
  0
LINE
  8
0
  6
CONTINUOUS
 62
     2
 10
251.757865344
 20
183.54809679
 30
0.0
 11
252.124647573
 21
183.914879019
 31
0.0
  0
LINE
  8
0
  6
CONTINUOUS
 62
     2
 10
252.312488559
 20
183.749166615
 30
0.0
 11
251.942357942
 21
183.379035998
 31
0.0
  0
LINE
  8
0
  6
CONTINUOUS
 62
     2
 10
252.15309896
 20
183.236223625
 30
0.0
 11
252.538909888
 21
183.622034553
 31
0.0
  0
LINE
  8
0
  6
CONTINUOUS
 62
     2
 10
252.812101756
 20
183.54167303
 30
0.0
 11
252.392480035
 21
183.12205131
 31
0.0
  0
LINE
  8
0
  6
CONTINUOUS
 62
     2
 10
252.66575811
 20
183.041775994
 30
0.0
 11
253.148604344
 21
183.524622227
 31
0.0
  0
LINE
  8
0
  6
CONTINUOUS
 62
     2
 10
251.924515494
 20
184.209721687
 30
0.0
 11
251.54303075
 21
183.828236944
 31
0.0
  0
LINE
  8
0
  6
CONTINUOUS
 62
     2
 10
251.628774914
 20
183.701849073
 30
0.0
 11
252.000944174
 21
184.074018333
 31
0.0
  0
LINE
  8
0
  6
CONTINUOUS
 62
     2
 10
252.091484583
 20
183.952426707
 30
0.0
 11
251.724042978
 21
183.584985103
 31
0.0
  0
LINE
  8
0
  6
CONTINUOUS
 62
     2
 10
251.828582317
 20
183.477392407
 30
0.0
 11
252.195367248
 21
183.844177338
 31
0.0
  0
LINE
  8
0
  6
CONTINUOUS
 62
     2
 10
252.312488559
 20
183.749166615
 30
0.0
 11
251.942357942
 21
183.379035998
 31
0.0
  0
LINE
  8
0
  6
CONTINUOUS
 62
     2
 10
252.065548378
 20
183.290094399
 30
0.0
 11
252.443384647
 21
183.667930668
 31
0.0
  0
LINE
  8
0
  6
CONTINUOUS
 62
     2
 10
252.589371965
 20
183.601785952
 30
0.0
 11
252.198567091
 21
183.210981078
 31
0.0
  0
LINE
  8
0
  6
CONTINUOUS
 62
     2
 10
252.342115834
 20
183.142397787
 30
0.0
 11
252.752952046
 21
183.553233998
 31
0.0
  0
LINE
  8
0
  6
CONTINUOUS
 62
     2
 10
252.938839884
 20
183.526989803
 30
0.0
 11
252.4972874
 21
183.085437318
 31
0.0
  0
LINE
  8
0
  6
CONTINUOUS
 62
     2
 10
252.66575811
 20
183.041775994
 30
0.0
 11
253.148604344
 21
183.524622227
 31
0.0
  0
LINE
  8
0
  6
CONTINUOUS
 62
     2
 10
253.187284
 20
183.35116985
 30
0.0
 11
252.850166672
 21
183.014052522
 31
0.0
  0
LINE
  8
0
  6
CONTINUOUS
 62
     2
 10
257.586814278
 20
182.997582227
 30
0.0
 11
254.09758
 21
182.997582227
 31
0.0
  0
LINE
  8
0
  6
CONTINUOUS
 62
     2
 10
257.449981562
 20
183.134414944
 30
0.0
 11
254.234412717
 21
183.134414944
 31
0.0
  0
POLYLINE
  8
0
  6
CONTINUOUS
 62
     2
 66
     1
  0
VERTEX
  8
0
  6
CONTINUOUS
 62
     2
 10
254.918576301
 20
185.665820205
 30
0.0
  0
VERTEX
  8
0
  6
CONTINUOUS
 62
     2
 10
254.918576301
 20
183.818578528
 30
0.0
  0
VERTEX
  8
0
  6
CONTINUOUS
 62
     2
 10
256.765817978
 20
183.818578528
 30
0.0
  0
SEQEND
  0
POLYLINE
  8
0
  6
CONTINUOUS
 62
     2
 66
     1
  0
VERTEX
  8
0
  6
CONTINUOUS
 62
     2
 10
259.656361365
 20
186.495813523
 30
0.0
  0
VERTEX
  8
0
  6
CONTINUOUS
 62
     2
 10
259.656361365
 20
186.494734802
 30
0.0
  0
VERTEX
  8
0
  6
CONTINUOUS
 62
     2
 10
259.546423993
 20
186.463479544
 30
0.0
  0
VERTEX
  8
0
  6
CONTINUOUS
 62
     2
 10
259.427866071
 20
186.369711466
 30
0.0
  0
VERTEX
  8
0
  6
CONTINUOUS
 62
     2
 10
259.351343704
 20
186.242530689
 30
0.0
  0
VERTEX
  8
0
  6
CONTINUOUS
 62
     2
 10
259.333021577
 20
186.095949062
 30
0.0
  0
VERTEX
  8
0
  6
CONTINUOUS
 62
     2
 10
259.347031124
 20
185.986013995
 30
0.0
  0
VERTEX
  8
0
  6
CONTINUOUS
 62
     2
 10
259.348109845
 20
185.986013995
 30
0.0
  0
SEQEND
  0
LINE
  8
0
  6
CONTINUOUS
 62
     2
 10
260.740626074
 20
185.121619421
 30
0.0
 11
260.525066215
 21
185.707941316
 31
0.0
  0
LINE
  8
0
  6
CONTINUOUS
 62
     2
 10
262.291580644
 20
186.495813523
 30
0.0
 11
259.656361365
 21
186.495813523
 31
0.0
  0
LINE
  8
0
  6
CONTINUOUS
 62
     2
 10
259.659592919
 20
186.495813523
 30
0.0
 11
259.548581436
 21
186.465634682
 31
0.0
  0
LINE
  8
0
  6
CONTINUOUS
 62
     2
 10
259.548581436
 20
186.465634682
 30
0.0
 11
259.430023513
 21
186.37294302
 31
0.0
  0
LINE
  8
0
  6
CONTINUOUS
 62
     2
 10
259.430023513
 20
186.37294302
 30
0.0
 11
259.35242012
 21
186.246840964
 31
0.0
  0
LINE
  8
0
  6
CONTINUOUS
 62
     2
 10
259.35242012
 20
186.246840964
 30
0.0
 11
259.333021577
 21
186.092715203
 31
0.0
  0
LINE
  8
0
  6
CONTINUOUS
 62
     2
 10
259.333021577
 20
186.092715203
 30
0.0
 11
259.344875986
 21
185.993558129
 31
0.0
  0
LINE
  8
0
  6
CONTINUOUS
 62
     2
 10
259.344875986
 20
185.993558129
 30
0.0
 11
259.90533162
 21
184.453383857
 31
0.0
  0
LINE
  8
0
  6
CONTINUOUS
 62
     2
 10
262.290501923
 20
186.495813523
 30
0.0
 11
259.659592919
 21
186.495813523
 31
0.0
  0
LINE
  8
0
  6
CONTINUOUS
 62
     2
 10
260.523989799
 20
185.709020037
 30
0.0
 11
260.739549658
 21
185.121619421
 31
0.0
  0
LINE
  8
0
  6
CONTINUOUS
 62
     2
 10
259.333742969
 20
186.086681061
 30
0.0
 11
259.742875432
 21
186.495813523
 31
0.0
  0
LINE
  8
0
  6
CONTINUOUS
 62
     2
 10
260.068846001
 20
186.495813523
 30
0.0
 11
259.404030246
 21
185.830997768
 31
0.0
  0
LINE
  8
0
  6
CONTINUOUS
 62
     2
 10
259.49100037
 20
185.591997322
 30
0.0
 11
260.39481657
 21
186.495813523
 31
0.0
  0
LINE
  8
0
  6
CONTINUOUS
 62
     2
 10
260.72078714
 20
186.495813523
 30
0.0
 11
259.577970493
 21
185.352996877
 31
0.0
  0
LINE
  8
0
  6
CONTINUOUS
 62
     2
 10
259.664940616
 20
185.113996431
 30
0.0
 11
261.046757709
 21
186.495813523
 31
0.0
  0
LINE
  8
0
  6
CONTINUOUS
 62
     2
 10
260.541138775
 20
185.66422402
 30
0.0
 11
259.75191074
 21
184.874995985
 31
0.0
  0
LINE
  8
0
  6
CONTINUOUS
 62
     2
 10
259.838880863
 20
184.635995539
 30
0.0
 11
260.628128205
 21
185.42524288
 31
0.0
  0
LINE
  8
0
  6
CONTINUOUS
 62
     2
 10
260.716391971
 20
185.187536077
 30
0.0
 11
259.947292678
 21
184.418436784
 31
0.0
  0
LINE
  8
0
  6
CONTINUOUS
 62
     2
 10
260.177174816
 20
184.316524937
 30
0.0
 11
260.952174816
 21
185.116524937
 31
0.0
  0
LINE
  8
0
  6
CONTINUOUS
 62
     2
 10
262.943649218
 20
186.495813523
 30
0.0
 11
263.602183205
 21
184.63014202
 31
0.0
  0
LINE
  8
0
  6
CONTINUOUS
 62
     2
 10
263.328551694
 20
186.495813523
 30
0.0
 11
263.044052973
 21
186.211314802
 31
0.0
  0
LINE
  8
0
  6
CONTINUOUS
 62
     2
 10
263.129084041
 20
185.970375301
 30
0.0
 11
263.654522263
 21
186.495813523
 31
0.0
  0
LINE
  8
0
  6
CONTINUOUS
 62
     2
 10
264.369476565
 20
185.580914978
 30
0.0
 11
263.554239386
 21
184.7656778
 31
0.0
  0
LINE
  8
0
  6
CONTINUOUS
 62
     2
 10
263.639270455
 20
184.524738299
 30
0.0
 11
264.457170592
 21
185.342638437
 31
0.0
  0
POLYLINE
  8
0
  6
CONTINUOUS
 62
     2
 66
     1
  0
VERTEX
  8
0
  6
CONTINUOUS
 62
     2
 10
261.472453179
 20
185.707941316
 30
0.0
  0
VERTEX
  8
0
  6
CONTINUOUS
 62
     2
 10
261.691244592
 20
185.121619421
 30
0.0
  0
VERTEX
  8
0
  6
CONTINUOUS
 62
     2
 10
260.740626074
 20
185.121619421
 30
0.0
  0
SEQEND
  0
LINE
  8
0
  6
CONTINUOUS
 62
     2
 10
260.739549658
 20
185.121619421
 30
0.0
 11
261.691244592
 21
185.121619421
 31
0.0
  0
LINE
  8
0
  6
CONTINUOUS
 62
     2
 10
261.691244592
 20
185.121619421
 30
0.0
 11
261.472453179
 21
185.709020037
 31
0.0
  0
LINE
  8
0
  6
CONTINUOUS
 62
     2
 10
261.472453179
 20
185.709020037
 30
0.0
 11
260.523989799
 21
185.709020037
 31
0.0
  0
LINE
  8
0
  6
CONTINUOUS
 62
     2
 10
261.372728278
 20
186.495813523
 30
0.0
 11
260.585934792
 21
185.709020037
 31
0.0
  0
LINE
  8
0
  6
CONTINUOUS
 62
     2
 10
260.911905361
 20
185.709020037
 30
0.0
 11
261.698698848
 21
186.495813523
 31
0.0
  0
LINE
  8
0
  6
CONTINUOUS
 62
     2
 10
262.024669417
 20
186.495813523
 30
0.0
 11
261.237875931
 21
185.709020037
 31
0.0
  0
LINE
  8
0
  6
CONTINUOUS
 62
     2
 10
261.496996382
 20
185.642169919
 30
0.0
 11
262.306532176
 21
186.451705713
 31
0.0
  0
LINE
  8
0
  6
CONTINUOUS
 62
     2
 10
262.393422081
 20
186.212625049
 30
0.0
 11
261.585721026
 21
185.404923994
 31
0.0
  0
POLYLINE
  8
0
  6
CONTINUOUS
 62
     2
 66
     1
  0
VERTEX
  8
0
  6
CONTINUOUS
 62
     2
 10
264.62501612
 20
184.889892572
 30
0.0
  0
VERTEX
  8
0
  6
CONTINUOUS
 62
     2
 10
264.031147786
 20
186.495813523
 30
0.0
  0
VERTEX
  8
0
  6
CONTINUOUS
 62
     2
 10
262.943649218
 20
186.495813523
 30
0.0
  0
SEQEND
  0
LINE
  8
0
  6
CONTINUOUS
 62
     2
 10
264.644414663
 20
184.837079024
 30
0.0
 11
264.030069065
 21
186.495813523
 31
0.0
  0
LINE
  8
0
  6
CONTINUOUS
 62
     2
 10
264.030069065
 20
186.495813523
 30
0.0
 11
262.943649218
 21
186.495813523
 31
0.0
  0
LINE
  8
0
  6
CONTINUOUS
 62
     2
 10
263.980492832
 20
186.495813523
 30
0.0
 11
263.21411511
 21
185.729435801
 31
0.0
  0
LINE
  8
0
  6
CONTINUOUS
 62
     2
 10
263.299146179
 20
185.488496301
 30
0.0
 11
264.104770191
 21
186.294120313
 31
0.0
  0
LINE
  8
0
  6
CONTINUOUS
 62
     2
 10
264.193474618
 20
186.05685417
 30
0.0
 11
263.384177248
 21
185.2475568
 31
0.0
  0
LINE
  8
0
  6
CONTINUOUS
 62
     2
 10
263.469208317
 20
185.0066173
 30
0.0
 11
264.280970392
 21
185.818379375
 31
0.0
  0
LINE
  8
0
  6
CONTINUOUS
 62
     2
 10
264.715550339
 20
184.63014202
 30
0.0
 11
264.627171258
 21
184.887737434
 31
0.0
  0
LINE
  8
0
  6
CONTINUOUS
 62
     2
 10
264.927876339
 20
183.033922645
 30
0.0
 11
264.961289039
 21
183.047932192
 31
0.0
  0
LINE
  8
0
  6
CONTINUOUS
 62
     2
 10
265.117569937
 20
183.452106928
 30
0.0
 11
264.71662906
 21
184.63014202
 31
0.0
  0
LINE
  8
0
  6
CONTINUOUS
 62
     2
 10
264.844886254
 20
182.997276086
 30
0.0
 11
264.84919653
 21
183.000509945
 31
0.0
  0
LINE
  8
0
  6
CONTINUOUS
 62
     2
 10
264.84919653
 20
183.000509945
 30
0.0
 11
264.92464248
 21
183.032843924
 31
0.0
  0
LINE
  8
0
  6
CONTINUOUS
 62
     2
 10
264.840575979
 20
182.997276086
 30
0.0
 11
264.960210318
 21
183.047932192
 31
0.0
  0
LINE
  8
0
  6
CONTINUOUS
 62
     2
 10
265.117569937
 20
183.451030512
 30
0.0
 11
264.644414663
 21
184.837079024
 31
0.0
  0
LINE
  8
0
  6
CONTINUOUS
 62
     2
 10
264.066571131
 20
182.99621556
 30
0.0
 11
264.965845023
 21
183.895489452
 31
0.0
  0
LINE
  8
0
  6
CONTINUOUS
 62
     2
 10
265.04922946
 20
183.652903319
 30
0.0
 11
264.392991242
 21
182.996665101
 31
0.0
  0
LINE
  8
0
  6
CONTINUOUS
 62
     2
 10
264.719401812
 20
182.997105102
 30
0.0
 11
265.120795345
 21
183.398498636
 31
0.0
  0
POLYLINE
  8
0
  6
CONTINUOUS
 62
     2
 66
     1
  0
VERTEX
  8
0
  6
CONTINUOUS
 62
     2
 10
263.602183205
 20
184.63014202
 30
0.0
  0
VERTEX
  8
0
  6
CONTINUOUS
 62
     2
 10
263.791876803
 20
184.092321093
 30
0.0
  0
VERTEX
  8
0
  6
CONTINUOUS
 62
     2
 10
263.167829628
 20
184.084776959
 30
0.0
  0
SEQEND
  0
LINE
  8
0
  6
CONTINUOUS
 62
     2
 10
262.456482092
 20
183.032843924
 30
0.0
 11
262.471572666
 21
182.994042227
 31
0.0
  0
LINE
  8
0
  6
CONTINUOUS
 62
     2
 10
260.172626306
 20
184.302491956
 30
0.0
 11
260.696437686
 21
184.294947822
 31
0.0
  0
LINE
  8
0
  6
CONTINUOUS
 62
     2
 10
260.696437686
 20
184.294947822
 30
0.0
 11
260.428064278
 21
182.994042227
 31
0.0
  0
LINE
  8
0
  6
CONTINUOUS
 62
     2
 10
260.428064278
 20
182.994042227
 30
0.0
 11
261.504787158
 21
182.994042227
 31
0.0
  0
LINE
  8
0
  6
CONTINUOUS
 62
     2
 10
261.504787158
 20
182.994042227
 30
0.0
 11
261.777468536
 21
184.299258097
 31
0.0
  0
LINE
  8
0
  6
CONTINUOUS
 62
     2
 10
260.174781444
 20
184.303568372
 30
0.0
 11
260.696437686
 21
184.296024238
 31
0.0
  0
LINE
  8
0
  6
CONTINUOUS
 62
     2
 10
260.696437686
 20
184.296024238
 30
0.0
 11
260.428064278
 21
182.994042227
 31
0.0
  0
LINE
  8
0
  6
CONTINUOUS
 62
     2
 10
260.428064278
 20
182.994042227
 30
0.0
 11
261.503708437
 21
182.994042227
 31
0.0
  0
LINE
  8
0
  6
CONTINUOUS
 62
     2
 10
261.503708437
 20
182.994042227
 30
0.0
 11
261.77639212
 21
184.299258097
 31
0.0
  0
LINE
  8
0
  6
CONTINUOUS
 62
     2
 10
263.791876803
 20
184.092321093
 30
0.0
 11
263.166753212
 21
184.084776959
 31
0.0
  0
LINE
  8
0
  6
CONTINUOUS
 62
     2
 10
261.774399468
 20
184.289720159
 30
0.0
 11
260.478721537
 21
182.994042227
 31
0.0
  0
LINE
  8
0
  6
CONTINUOUS
 62
     2
 10
260.804692106
 20
182.994042227
 30
0.0
 11
261.688313188
 21
183.877663309
 31
0.0
  0
LINE
  8
0
  6
CONTINUOUS
 62
     2
 10
261.602226908
 20
183.46560646
 30
0.0
 11
261.130662675
 21
182.994042227
 31
0.0
  0
LINE
  8
0
  6
CONTINUOUS
 62
     2
 10
261.456633245
 20
182.994042227
 30
0.0
 11
261.516140627
 21
183.05354961
 31
0.0
  0
LINE
  8
0
  6
CONTINUOUS
 62
     2
 10
263.529659318
 20
184.089156593
 30
0.0
 11
262.461446191
 21
183.020943466
 31
0.0
  0
LINE
  8
0
  6
CONTINUOUS
 62
     2
 10
262.943649218
 20
186.495813523
 30
0.0
 11
263.791876803
 21
184.092321093
 31
0.0
  0
LINE
  8
0
  6
CONTINUOUS
 62
     2
 10
261.302416453
 20
185.121619421
 30
0.0
 11
260.479952061
 21
184.299155029
 31
0.0
  0
LINE
  8
0
  6
CONTINUOUS
 62
     2
 10
260.668823146
 20
184.162055544
 30
0.0
 11
261.628387022
 21
185.121619421
 31
0.0
  0
LINE
  8
0
  6
CONTINUOUS
 62
     2
 10
262.471572666
 20
182.994042227
 30
0.0
 11
264.844886254
 21
182.997276086
 31
0.0
  0
LINE
  8
0
  6
CONTINUOUS
 62
     2
 10
262.471572666
 20
182.994042227
 30
0.0
 11
264.840575979
 21
182.997276086
 31
0.0
  0
LINE
  8
0
  6
CONTINUOUS
 62
     2
 10
264.545478512
 20
185.104975787
 30
0.0
 11
263.724330808
 21
184.283828083
 31
0.0
  0
LINE
  8
0
  6
CONTINUOUS
 62
     2
 10
262.76090977
 20
182.994436476
 30
0.0
 11
264.633370793
 21
184.866897499
 31
0.0
  0
LINE
  8
0
  6
CONTINUOUS
 62
     2
 10
264.718141644
 20
184.625697781
 30
0.0
 11
263.087326639
 21
182.994882776
 31
0.0
  0
LINE
  8
0
  6
CONTINUOUS
 62
     2
 10
263.413740451
 20
182.995326018
 30
0.0
 11
264.799930243
 21
184.38151581
 31
0.0
  0
LINE
  8
0
  6
CONTINUOUS
 62
     2
 10
264.883685552
 20
184.13930055
 30
0.0
 11
263.74015894
 21
182.995773938
 31
0.0
  0
LINE
  8
0
  6
CONTINUOUS
 62
     2
 10
261.674162902
 20
185.1673953
 30
0.0
 11
262.480311987
 21
185.973544385
 31
0.0
  0
LINE
  8
0
  6
CONTINUOUS
 62
     2
 10
261.975784989
 20
184.31003609
 30
0.0
 11
262.456482092
 21
183.032843924
 31
0.0
  0
LINE
  8
0
  6
CONTINUOUS
 62
     2
 10
261.777468536
 20
184.299258097
 30
0.0
 11
261.787170113
 21
184.31003609
 31
0.0
  0
LINE
  8
0
  6
CONTINUOUS
 62
     2
 10
261.77639212
 20
184.299258097
 30
0.0
 11
261.787170113
 21
184.311114811
 31
0.0
  0
LINE
  8
0
  6
CONTINUOUS
 62
     2
 10
261.787170113
 20
184.311114811
 30
0.0
 11
261.975784989
 21
184.311114811
 31
0.0
  0
LINE
  8
0
  6
CONTINUOUS
 62
     2
 10
261.975784989
 20
184.311114811
 30
0.0
 11
262.471572666
 21
182.994042227
 31
0.0
  0
LINE
  8
0
  6
CONTINUOUS
 62
     2
 10
263.088541327
 20
184.29997974
 30
0.0
 11
262.283150936
 21
183.494589349
 31
0.0
  0
LINE
  8
0
  6
CONTINUOUS
 62
     2
 10
262.371956652
 20
183.257424496
 30
0.0
 11
263.199694328
 21
184.085162173
 31
0.0
  0
LINE
  8
0
  6
CONTINUOUS
 62
     2
 10
262.193682501
 20
183.731091484
 30
0.0
 11
263.001651421
 21
184.539060404
 31
0.0
  0
LINE
  8
0
  6
CONTINUOUS
 62
     2
 10
262.914761515
 20
184.778141067
 30
0.0
 11
262.104545426
 21
183.967924978
 31
0.0
  0
LINE
  8
0
  6
CONTINUOUS
 62
     2
 10
263.166753212
 20
184.084776959
 30
0.0
 11
262.290501923
 21
186.495813523
 31
0.0
  0
LINE
  8
0
  6
CONTINUOUS
 62
     2
 10
260.499548563
 20
183.340839823
 30
0.0
 11
262.654091798
 21
185.495383058
 31
0.0
  0
LINE
  8
0
  6
CONTINUOUS
 62
     2
 10
262.740981704
 20
185.256302395
 30
0.0
 11
261.775760176
 21
184.291080867
 31
0.0
  0
LINE
  8
0
  6
CONTINUOUS
 62
     2
 10
262.01540835
 20
184.204758472
 30
0.0
 11
262.82787161
 21
185.017221731
 31
0.0
  0
LINE
  8
0
  6
CONTINUOUS
 62
     2
 10
262.567201893
 20
185.734463722
 30
0.0
 11
260.584348611
 21
183.75161044
 31
0.0
  0
ARC
  8
0
  6
CONTINUOUS
 62
     2
 10
229.9
 20
207.1
 30
0.0
 40
1.0
 50
90.0
 51
180.0
  0
ARC
  8
0
  6
CONTINUOUS
 62
     2
 10
229.9
 20
207.100000318
 30
0.0
 40
0.5
 50
90.0
 51
180.000000001
  0
ARC
  8
0
  6
CONTINUOUS
 62
     2
 10
229.9
 20
207.100000318
 30
0.0
 40
0.5
 50
90.0
 51
180.000000001
  0
LINE
  8
0
  6
CONTINUOUS
 62
     2
 10
267.9
 20
208.1
 30
0.0
 11
229.9
 21
208.1
 31
0.0
  0
LINE
  8
0
  6
CONTINUOUS
 62
     2
 10
267.9
 20
207.600000318
 30
0.0
 11
229.9
 21
207.600000318
 31
0.0
  0
LINE
  8
0
  6
CONTINUOUS
 62
     2
 10
267.9
 20
207.600000318
 30
0.0
 11
229.9
 21
207.600000318
 31
0.0
  0
ARC
  8
0
  6
CONTINUOUS
 62
     2
 10
267.9
 20
207.1
 30
0.0
 40
1.0
 50
0.0
 51
90.0
  0
ARC
  8
0
  6
CONTINUOUS
 62
     2
 10
267.9
 20
207.100000318
 30
0.0
 40
0.5
 50
0.0
 51
90.0
  0
ARC
  8
0
  6
CONTINUOUS
 62
     2
 10
267.9
 20
207.100000318
 30
0.0
 40
0.5
 50
0.0
 51
90.0
  0
ARC
  8
0
  6
CONTINUOUS
 62
     2
 10
267.9
 20
168.1
 30
0.0
 40
1.0
 50
270.0
 51
0.0
  0
LINE
  8
0
  6
CONTINUOUS
 62
     2
 10
229.9
 20
167.1
 30
0.0
 11
267.9
 21
167.1
 31
0.0
  0
ARC
  8
0
  6
CONTINUOUS
 62
     2
 10
267.9
 20
168.100000318
 30
0.0
 40
0.5
 50
270.0
 51
0.0
  0
LINE
  8
0
  6
CONTINUOUS
 62
     2
 10
229.9
 20
167.600000318
 30
0.0
 11
267.9
 21
167.600000318
 31
0.0
  0
ARC
  8
0
  6
CONTINUOUS
 62
     2
 10
267.9
 20
168.100000318
 30
0.0
 40
0.5
 50
270.0
 51
0.0
  0
LINE
  8
0
  6
CONTINUOUS
 62
     2
 10
229.9
 20
167.600000318
 30
0.0
 11
267.9
 21
167.600000318
 31
0.0
  0
LINE
  8
0
  6
CONTINUOUS
 62
     2
 10
268.9
 20
168.1
 30
0.0
 11
268.9
 21
207.1
 31
0.0
  0
LINE
  8
0
  6
CONTINUOUS
 62
     2
 10
268.4
 20
168.100000318
 30
0.0
 11
268.4
 21
207.100000318
 31
0.0
  0
LINE
  8
0
  6
CONTINUOUS
 62
     2
 10
268.4
 20
168.100000318
 30
0.0
 11
268.4
 21
207.100000318
 31
0.0
  0
ARC
  8
0
  6
CONTINUOUS
 62
     2
 10
229.9
 20
168.1
 30
0.0
 40
1.0
 50
180.0
 51
270.0
  0
ARC
  8
0
  6
CONTINUOUS
 62
     2
 10
229.9
 20
168.100000318
 30
0.0
 40
0.5
 50
179.999999999
 51
270.0
  0
ARC
  8
0
  6
CONTINUOUS
 62
     2
 10
229.9
 20
168.100000318
 30
0.0
 40
0.5
 50
179.999999999
 51
270.0
  0
LINE
  8
0
  6
CONTINUOUS
 62
     2
 10
228.9
 20
207.1
 30
0.0
 11
228.9
 21
168.1
 31
0.0
  0
LINE
  8
0
  6
CONTINUOUS
 62
     2
 10
229.4
 20
207.100000318
 30
0.0
 11
229.4
 21
168.100000318
 31
0.0
  0
LINE
  8
0
  6
CONTINUOUS
 62
     2
 10
229.4
 20
207.100000318
 30
0.0
 11
229.4
 21
168.100000318
 31
0.0
  0
TEXT
  8
0
  6
CONTINUOUS
 62
     2
 10
116.7
 20
206.8
 30
-0.3
 40
2.0
  1
ＴＴＭ－００４Ｗ
 50
0.0
 41
1.0
 51
15.0
  7
KANJI12
  0
TEXT
  8
0
  6
CONTINUOUS
 62
     1
 10
337.55
 20
235.8
 30
0.3
 40
3.0
  1
アタッチメント
 50
0.0
 41
0.933333333
 51
15.0
  7
KANJI13
  0
TEXT
  8
0
  6
CONTINUOUS
 62
     1
 10
209.0
 20
159.7
 30
0.3
 40
3.0
  1
パッキン
 50
0.0
 41
0.933333333
 51
15.0
  7
KANJI13
  0
TEXT
  8
0
  6
CONTINUOUS
 62
     1
 10
235.9
 20
152.7
 30
0.3
 40
3.0
  1
ＰＣ
 50
0.0
 41
0.933333333
 51
15.0
  7
KANJI13
  0
TEXT
  8
0
  6
CONTINUOUS
 62
     1
 10
233.8
 20
158.1
 30
0.3
 40
3.0
  1
フロント及びケース（黒色）
 50
0.0
 41
0.933333333
 51
15.0
  7
KANJI13
  0
TEXT
  8
0
  6
CONTINUOUS
 62
     2
 10
165.7
 20
70.8
 30
0.3
 40
3.0
  1
台取付時
 50
0.0
 41
0.933333333
 51
15.0
  7
KANJI13
  0
TEXT
  8
0
  6
CONTINUOUS
 62
     2
 10
161.8
 20
70.8
 30
0.3
 40
3.0
  1
ｎ
 50
0.0
 41
0.933333333
 51
15.0
  7
KANJI13
  0
TEXT
  8
0
  6
CONTINUOUS
 62
     2
 10
153.8
 20
96.6
 30
0.3
 40
3.0
  1
１台取付時
 50
0.0
 41
0.933333333
 51
15.0
  7
KANJI13
  0
TEXT
  8
0
  6
CONTINUOUS
 62
     2
 10
153.7
 20
113.6
 30
0.3
 40
3.0
  1
パネルカットＳＣＡＬＥ　１／２
 50
0.0
 41
0.933333333
 51
15.0
  7
KANJI13
  0
TEXT
  8
0
  6
CONTINUOUS
 62
     2
 10
318.069401077
 20
123.5
 30
0.3
 40
3.0
  1
＜ＬＥＤ表示色＞
 50
0.0
 41
0.9
 51
0.0
  7
KANJI14
  0
TEXT
  8
0
  6
CONTINUOUS
 62
     1
 10
318.069401077
 20
108.5
 30
0.3
 40
3.0
  1
・ＳＶ　　：緑色
 50
0.0
 41
0.9
 51
0.0
  7
KANJI14
  0
TEXT
  8
0
  6
CONTINUOUS
 62
     1
 10
318.069401077
 20
113.5
 30
0.3
 40
3.0
  1
・ＰＶ　　：白色
 50
0.0
 41
0.9
 51
0.0
  7
KANJI14
  0
TEXT
  8
0
  6
CONTINUOUS
 62
     1
 10
318.069401077
 20
103.5
 30
0.3
 40
3.0
  1
・ＯＵＴ１：赤色
 50
0.0
 41
0.9
 51
0.0
  7
KANJI14
  0
TEXT
  8
0
  6
CONTINUOUS
 62
     1
 10
318.069401077
 20
98.5
 30
0.3
 40
3.0
  1
・ＯＵＴ２：赤色
 50
0.0
 41
0.9
 51
0.0
  7
KANJI14
  0
TEXT
  8
0
  6
CONTINUOUS
 62
     1
 10
318.069401077
 20
93.5
 30
0.3
 40
3.0
  1
・ＡＬ１　：赤色
 50
0.0
 41
0.9
 51
0.0
  7
KANJI14
  0
TEXT
  8
0
  6
CONTINUOUS
 62
     1
 10
318.069401077
 20
88.5
 30
0.3
 40
3.0
  1
・ＡＬ２　：赤色
 50
0.0
 41
0.9
 51
0.0
  7
KANJI14
  0
TEXT
  8
0
  6
CONTINUOUS
 62
     1
 10
318.069401077
 20
83.5
 30
0.3
 40
3.0
  1
・ＣＯＭ　：緑色
 50
0.0
 41
0.9
 51
0.0
  7
KANJI14
  0
TEXT
  8
0
  6
CONTINUOUS
 62
     1
 10
318.069401077
 20
78.5
 30
0.3
 40
3.0
  1
・ＲＤＹ　：赤色
 50
0.0
 41
0.9
 51
0.0
  7
KANJI14
  0
TEXT
  8
0
  6
CONTINUOUS
 62
     1
 10
318.069401077
 20
73.5
 30
0.3
 40
3.0
  1
・ＤＩ　　：緑色
 50
0.0
 41
0.9
 51
0.0
  7
KANJI14
  0
LINE
  8
0
  6
CONTINUOUS
 62
     1
 10
159.65
 20
157.2
 30
0.0
 11
179.0
 21
157.2
 31
0.0
  0
TEXT
  8
0
  6
CONTINUOUS
 62
     1
 10
161.0
 20
158.2
 30
0.3
 40
3.0
  1
パネルシート
 50
0.0
 41
0.933333333
 51
15.0
  7
KANJI13
  0
LINE
  8
0
  6
CONTINUOUS
 62
     1
 10
125.8
 20
155.8
 30
0.0
 11
106.2
 21
155.8
 31
0.0
  0
TEXT
  8
0
  6
CONTINUOUS
 62
     1
 10
106.2
 20
156.8
 30
0.3
 40
3.0
  1
φ７エンボス
 50
0.0
 41
0.933333333
 51
15.0
  7
KANJI13
  0
LINE
  8
0
  6
LTYPE3
 62
     1
 10
152.8
 20
58.5
 30
0.0
 11
189.04
 21
58.5
 31
0.0
  0
POLYLINE
  8
0
  6
CONTINUOUS
 62
     2
 66
     1
  0
VERTEX
  8
0
  6
CONTINUOUS
 62
     2
 10
115.9
 20
84.5
 30
0.0
  0
VERTEX
  8
0
  6
CONTINUOUS
 62
     2
 10
138.4
 20
84.5
 30
0.0
  0
VERTEX
  8
0
  6
CONTINUOUS
 62
     2
 10
138.4
 20
107.0
 30
0.0
  0
SEQEND
  0
LINE
  8
0
  6
CONTINUOUS
 62
     2
 10
115.9
 20
107.0
 30
0.0
 11
115.9
 21
84.5
 31
0.0
  0
LINE
  8
0
  6
CONTINUOUS
 62
     2
 10
138.4
 20
107.0
 30
0.0
 11
115.9
 21
107.0
 31
0.0
  0
LINE
  8
0
  6
CONTINUOUS
 62
     2
 10
184.2
 20
69.7
 30
0.0
 11
138.2
 21
69.7
 31
0.0
  0
LINE
  8
0
  6
CONTINUOUS
 62
     2
 10
184.3
 20
47.2
 30
0.0
 11
184.3
 21
69.7
 31
0.0
  0
LINE
  8
0
  6
CONTINUOUS
 62
     2
 10
138.2
 20
47.2
 30
0.0
 11
184.3
 21
47.2
 31
0.0
  0
LINE
  8
0
  6
CONTINUOUS
 62
     2
 10
138.4
 20
47.2
 30
0.0
 11
115.9
 21
47.2
 31
0.0
  0
LINE
  8
0
  6
CONTINUOUS
 62
     2
 10
115.9
 20
69.7
 30
0.0
 11
138.4
 21
69.7
 31
0.0
  0
LINE
  8
0
  6
CONTINUOUS
 62
     2
 10
115.9
 20
47.2
 30
0.0
 11
115.9
 21
69.7
 31
0.0
  0
LINE
  8
0
  6
LTYPE4
 62
     1
 10
202.9
 20
211.6
 30
0.0
 11
204.9
 21
211.6
 31
0.0
  0
LINE
  8
0
  6
LTYPE4
 62
     1
 10
204.9
 20
211.6
 30
0.0
 11
204.9
 21
163.6
 31
0.0
  0
LINE
  8
0
  6
LTYPE4
 62
     1
 10
204.9
 20
163.6
 30
0.0
 11
202.9
 21
163.6
 31
0.0
  0
LINE
  8
0
  6
CONTINUOUS
 62
     1
 10
202.9
 20
231.6
 30
0.0
 11
200.485185434
 21
232.247047613
 31
0.0
  0
LINE
  8
0
  6
CONTINUOUS
 62
     1
 10
202.9
 20
231.6
 30
0.0
 11
200.485185434
 21
230.952952387
 31
0.0
  0
LINE
  8
0
  6
CONTINUOUS
 62
     1
 10
202.9
 20
231.6
 30
0.0
 11
205.314814566
 21
230.952952387
 31
0.0
  0
LINE
  8
0
  6
CONTINUOUS
 62
     1
 10
202.9
 20
231.6
 30
0.0
 11
205.314814566
 21
232.247047613
 31
0.0
  0
LINE
  8
0
  6
CONTINUOUS
 62
     1
 10
196.9
 20
231.6
 30
0.0
 11
199.314814566
 21
230.952952387
 31
0.0
  0
LINE
  8
0
  6
CONTINUOUS
 62
     1
 10
196.9
 20
231.6
 30
0.0
 11
199.314814566
 21
232.247047613
 31
0.0
  0
LINE
  8
0
  6
CONTINUOUS
 62
     1
 10
196.9
 20
231.6
 30
0.0
 11
202.9
 21
231.6
 31
0.0
  0
LINE
  8
0
  6
CONTINUOUS
 62
     1
 10
279.9
 20
231.6
 30
0.0
 11
277.485185434
 21
232.247047613
 31
0.0
  0
LINE
  8
0
  6
CONTINUOUS
 62
     1
 10
279.9
 20
231.6
 30
0.0
 11
277.485185434
 21
230.952952387
 31
0.0
  0
LINE
  8
0
  6
CONTINUOUS
 62
     1
 10
279.9
 20
210.35
 30
0.0
 11
279.9
 21
233.6
 31
0.0
  0
LINE
  8
0
  6
CONTINUOUS
 62
     1
 10
202.9
 20
231.6
 30
0.0
 11
279.9
 21
231.6
 31
0.0
  0
TEXT
  8
0
  6
CONTINUOUS
 62
     1
 10
238.6
 20
232.6
 30
0.3
 40
3.0
  1
７７
 50
0.0
 41
0.933333333
 51
15.0
  7
KANJI13
  0
TEXT
  8
0
  6
CONTINUOUS
 62
     1
 10
198.5
 20
232.6
 30
0.3
 40
3.0
  1
６
 50
0.0
 41
0.933333333
 51
15.0
  7
KANJI13
  0
LINE
  8
0
  6
CONTINUOUS
 62
     1
 10
202.9
 20
221.6
 30
0.0
 11
200.485185434
 21
222.247047613
 31
0.0
  0
LINE
  8
0
  6
CONTINUOUS
 62
     1
 10
202.9
 20
221.6
 30
0.0
 11
200.485185434
 21
220.952952387
 31
0.0
  0
LINE
  8
0
  6
CONTINUOUS
 62
     1
 10
199.15
 20
221.6
 30
0.0
 11
202.9
 21
221.6
 31
0.0
  0
LINE
  8
0
  6
CONTINUOUS
 62
     1
 10
202.9
 20
221.6
 30
0.0
 11
204.9
 21
221.6
 31
0.0
  0
LINE
  8
0
  6
CONTINUOUS
 62
     1
 10
204.9
 20
221.6
 30
0.0
 11
211.45
 21
221.6
 31
0.0
  0
LINE
  8
0
  6
CONTINUOUS
 62
     1
 10
204.9
 20
221.6
 30
0.0
 11
207.314814566
 21
220.952952387
 31
0.0
  0
LINE
  8
0
  6
CONTINUOUS
 62
     1
 10
204.9
 20
221.6
 30
0.0
 11
207.314814566
 21
222.247047613
 31
0.0
  0
LINE
  8
0
  6
CONTINUOUS
 62
     1
 10
204.9
 20
212.6
 30
0.0
 11
204.9
 21
223.6
 31
0.0
  0
TEXT
  8
0
  6
CONTINUOUS
 62
     1
 10
208.65
 20
222.6
 30
0.3
 40
3.0
  1
２
 50
0.0
 41
0.933333333
 51
15.0
  7
KANJI13
  0
LINE
  8
0
  6
CONTINUOUS
 62
     1
 10
196.9
 20
211.1
 30
0.0
 11
196.9
 21
233.6
 31
0.0
  0
LINE
  8
0
  6
CONTINUOUS
 62
     1
 10
202.9
 20
212.6
 30
0.0
 11
202.9
 21
233.6
 31
0.0
  0
LINE
  8
0
  6
CONTINUOUS
 62
     1
 10
113.2
 20
211.1
 30
0.0
 11
113.2
 21
223.6
 31
0.0
  0
LINE
  8
0
  6
CONTINUOUS
 62
     1
 10
113.2
 20
221.6
 30
0.0
 11
115.614814566
 21
220.952952387
 31
0.0
  0
LINE
  8
0
  6
CONTINUOUS
 62
     1
 10
113.2
 20
221.6
 30
0.0
 11
115.614814566
 21
222.247047613
 31
0.0
  0
LINE
  8
0
  6
CONTINUOUS
 62
     1
 10
113.2
 20
221.6
 30
0.0
 11
161.2
 21
221.6
 31
0.0
  0
LINE
  8
0
  6
CONTINUOUS
 62
     1
 10
161.2
 20
221.6
 30
0.0
 11
158.785185434
 21
222.247047613
 31
0.0
  0
LINE
  8
0
  6
CONTINUOUS
 62
     1
 10
161.2
 20
221.6
 30
0.0
 11
158.785185434
 21
220.952952387
 31
0.0
  0
LINE
  8
0
  6
CONTINUOUS
 62
     1
 10
161.2
 20
211.1
 30
0.0
 11
161.2
 21
223.6
 31
0.0
  0
TEXT
  8
0
  6
CONTINUOUS
 62
     1
 10
134.2
 20
222.6
 30
0.3
 40
3.0
  1
４８
 50
0.0
 41
0.933333333
 51
15.0
  7
KANJI13
  0
LINE
  8
0
  6
LTYPE5
 62
     1
 10
137.2
 20
230.27
 30
0.0
 11
137.2
 21
157.0
 31
0.0
  0
LINE
  8
0
  6
CONTINUOUS
 62
     1
 10
113.7
 20
211.6
 30
0.0
 11
101.2
 21
211.6
 31
0.0
  0
LINE
  8
0
  6
CONTINUOUS
 62
     1
 10
103.2
 20
211.6
 30
0.0
 11
102.552952387
 21
209.185185434
 31
0.0
  0
LINE
  8
0
  6
CONTINUOUS
 62
     1
 10
103.2
 20
211.6
 30
0.0
 11
103.847047613
 21
209.185185434
 31
0.0
  0
LINE
  8
0
  6
CONTINUOUS
 62
     1
 10
103.2
 20
211.6
 30
0.0
 11
103.2
 21
163.6
 31
0.0
  0
LINE
  8
0
  6
CONTINUOUS
 62
     1
 10
103.2
 20
163.6
 30
0.0
 11
103.847047613
 21
166.014814566
 31
0.0
  0
LINE
  8
0
  6
CONTINUOUS
 62
     1
 10
103.2
 20
163.6
 30
0.0
 11
102.552952387
 21
166.014814566
 31
0.0
  0
LINE
  8
0
  6
CONTINUOUS
 62
     1
 10
113.7
 20
163.6
 30
0.0
 11
101.2
 21
163.6
 31
0.0
  0
TEXT
  8
0
  6
CONTINUOUS
 62
     1
 10
102.2
 20
184.6
 30
0.3
 40
3.0
  1
４８
 50
90.0
 41
0.933333333
 51
15.0
  7
KANJI13
  0
LINE
  8
0
  6
CONTINUOUS
 62
     1
 10
323.211834027
 20
217.600000986
 30
0.0
 11
344.2
 21
217.600000986
 31
0.0
  0
LINE
  8
0
  6
CONTINUOUS
 62
     1
 10
342.2
 20
217.600000986
 30
0.0
 11
341.552952387
 21
215.18518642
 31
0.0
  0
LINE
  8
0
  6
CONTINUOUS
 62
     1
 10
342.2
 20
217.600000986
 30
0.0
 11
342.847047613
 21
215.18518642
 31
0.0
  0
LINE
  8
0
  6
CONTINUOUS
 62
     1
 10
342.2
 20
217.600000986
 30
0.0
 11
342.2
 21
158.600000986
 31
0.0
  0
LINE
  8
0
  6
CONTINUOUS
 62
     1
 10
342.2
 20
158.600000986
 30
0.0
 11
342.847047613
 21
161.014815551
 31
0.0
  0
LINE
  8
0
  6
CONTINUOUS
 62
     1
 10
342.2
 20
158.600000986
 30
0.0
 11
341.552952387
 21
161.014815551
 31
0.0
  0
LINE
  8
0
  6
CONTINUOUS
 62
     1
 10
323.211834027
 20
158.600000986
 30
0.0
 11
344.2
 21
158.600000986
 31
0.0
  0
TEXT
  8
0
  6
CONTINUOUS
 62
     1
 10
341.2
 20
185.300000986
 30
0.3
 40
3.0
  1
５９
 50
90.0
 41
0.933333333
 51
15.0
  7
KANJI13
  0
LINE
  8
0
  6
CONTINUOUS
 62
     1
 10
138.4
 20
117.0
 30
0.0
 11
136.468148347
 21
117.51763809
 31
0.0
  0
LINE
  8
0
  6
CONTINUOUS
 62
     1
 10
138.4
 20
117.0
 30
0.0
 11
136.468148347
 21
116.48236191
 31
0.0
  0
LINE
  8
0
  6
CONTINUOUS
 62
     1
 10
138.4
 20
117.0
 30
0.0
 11
115.9
 21
117.0
 31
0.0
  0
LINE
  8
0
  6
CONTINUOUS
 62
     1
 10
115.9
 20
117.0
 30
0.0
 11
117.831851653
 21
116.48236191
 31
0.0
  0
LINE
  8
0
  6
CONTINUOUS
 62
     1
 10
115.9
 20
117.0
 30
0.0
 11
117.831851653
 21
117.51763809
 31
0.0
  0
TEXT
  8
0
  6
CONTINUOUS
 62
     1
 10
120.3
 20
118.1
 30
0.3
 40
3.0
  1
４５
 50
0.0
 41
0.933333333
 51
15.0
  7
KANJI13
  0
TEXT
  8
0
  6
CONTINUOUS
 62
     1
 10
127.3
 20
121.1
 30
0.0
 40
2.0
  1
＋０．６
 50
0.0
 41
1.0
 51
15.0
  7
KANJI15
  0
TEXT
  8
0
  6
CONTINUOUS
 62
     1
 10
127.3
 20
118.1
 30
0.0
 40
2.0
  1
－０
 50
0.0
 41
1.0
 51
15.0
  7
KANJI15
  0
LINE
  8
0
  6
CONTINUOUS
 62
     1
 10
115.9
 20
119.0
 30
0.0
 11
115.9
 21
107.61
 31
0.0
  0
LINE
  8
0
  6
CONTINUOUS
 62
     1
 10
138.4
 20
118.9
 30
0.0
 11
138.4
 21
107.61
 31
0.0
  0
LINE
  8
0
  6
CONTINUOUS
 62
     1
 10
115.9
 20
46.0
 30
0.0
 11
115.9
 21
35.2
 31
0.0
  0
LINE
  8
0
  6
CONTINUOUS
 62
     1
 10
184.4
 20
46.0
 30
0.0
 11
184.4
 21
35.2
 31
0.0
  0
LINE
  8
0
  6
CONTINUOUS
 62
     1
 10
118.3
 20
36.6
 30
0.0
 11
115.9
 21
37.2
 31
0.0
  0
LINE
  8
0
  6
CONTINUOUS
 62
     1
 10
115.9
 20
37.2
 30
0.0
 11
118.3
 21
37.8
 31
0.0
  0
LINE
  8
0
  6
CONTINUOUS
 62
     1
 10
115.9
 20
37.2
 30
0.0
 11
184.4
 21
37.2
 31
0.0
  0
LINE
  8
0
  6
CONTINUOUS
 62
     1
 10
182.0
 20
36.6
 30
0.0
 11
184.4
 21
37.2
 31
0.0
  0
LINE
  8
0
  6
CONTINUOUS
 62
     1
 10
184.4
 20
37.2
 30
0.0
 11
182.0
 21
37.8
 31
0.0
  0
TEXT
  8
0
  6
CONTINUOUS
 62
     1
 10
159.44
 20
38.7
 30
0.0
 40
2.0
  1
＋０．５
 50
0.0
 41
1.0
 51
15.0
  7
KANJI15
  0
TEXT
  8
0
  6
CONTINUOUS
 62
     1
 10
159.44
 20
41.2
 30
0.0
 40
2.0
  1
＋１
 50
0.0
 41
1.0
 51
15.0
  7
KANJI15
  0
TEXT
  8
0
  6
CONTINUOUS
 62
     1
 10
130.81
 20
39.2
 30
0.3
 40
3.0
  1
（４８．３×ｎ－３）
 50
0.0
 41
0.933333333
 51
15.0
  7
KANJI13
  0
LINE
  8
0
  6
CONTINUOUS
 62
     1
 10
105.9
 20
107.0
 30
0.0
 11
105.38236191
 21
105.068148347
 31
0.0
  0
LINE
  8
0
  6
CONTINUOUS
 62
     1
 10
105.9
 20
107.0
 30
0.0
 11
106.41763809
 21
105.068148347
 31
0.0
  0
LINE
  8
0
  6
CONTINUOUS
 62
     1
 10
105.9
 20
107.0
 30
0.0
 11
105.9
 21
84.5
 31
0.0
  0
LINE
  8
0
  6
CONTINUOUS
 62
     1
 10
105.9
 20
84.5
 30
0.0
 11
106.41763809
 21
86.431851653
 31
0.0
  0
LINE
  8
0
  6
CONTINUOUS
 62
     1
 10
105.9
 20
84.5
 30
0.0
 11
105.38236191
 21
86.431851653
 31
0.0
  0
TEXT
  8
0
  6
CONTINUOUS
 62
     1
 10
104.7
 20
88.0
 30
0.3
 40
3.0
  1
４５
 50
90.0
 41
0.933333333
 51
15.0
  7
KANJI13
  0
TEXT
  8
0
  6
CONTINUOUS
 62
     1
 10
101.9
 20
95.2
 30
0.0
 40
2.0
  1
＋０．６
 50
90.0
 41
1.0
 51
15.0
  7
KANJI15
  0
TEXT
  8
0
  6
CONTINUOUS
 62
     1
 10
105.0
 20
95.2
 30
0.0
 40
2.0
  1
－０
 50
90.0
 41
1.0
 51
15.0
  7
KANJI15
  0
LINE
  8
0
  6
LTYPE3
 62
     1
 10
106.8
 20
96.0
 30
0.0
 11
170.24
 21
96.0
 31
0.0
  0
LINE
  8
0
  6
CONTINUOUS
 62
     1
 10
114.8
 20
107.0
 30
0.0
 11
103.4
 21
107.0
 31
0.0
  0
LINE
  8
0
  6
CONTINUOUS
 62
     1
 10
103.1
 20
84.5
 30
0.0
 11
114.8
 21
84.5
 31
0.0
  0
LINE
  8
0
  6
LTYPE3
 62
     1
 10
106.8
 20
58.5
 30
0.0
 11
152.9
 21
58.5
 31
0.0
  0
LINE
  8
0
  6
CONTINUOUS
 62
     1
 10
105.9
 20
47.2
 30
0.0
 11
106.41763809
 21
49.131851653
 31
0.0
  0
LINE
  8
0
  6
CONTINUOUS
 62
     1
 10
105.9
 20
47.2
 30
0.0
 11
105.38236191
 21
49.131851653
 31
0.0
  0
LINE
  8
0
  6
CONTINUOUS
 62
     1
 10
105.9
 20
69.7
 30
0.0
 11
105.38236191
 21
67.768148347
 31
0.0
  0
LINE
  8
0
  6
CONTINUOUS
 62
     1
 10
105.9
 20
69.7
 30
0.0
 11
106.41763809
 21
67.768148347
 31
0.0
  0
LINE
  8
0
  6
CONTINUOUS
 62
     1
 10
105.9
 20
69.7
 30
0.0
 11
105.9
 21
47.2
 31
0.0
  0
TEXT
  8
0
  6
CONTINUOUS
 62
     1
 10
105.3
 20
51.3
 30
0.3
 40
3.0
  1
４５
 50
90.0
 41
0.933333333
 51
15.0
  7
KANJI13
  0
TEXT
  8
0
  6
CONTINUOUS
 62
     1
 10
102.3
 20
58.3
 30
0.0
 40
2.0
  1
＋０．６
 50
90.0
 41
1.0
 51
15.0
  7
KANJI15
  0
TEXT
  8
0
  6
CONTINUOUS
 62
     1
 10
105.3
 20
58.3
 30
0.0
 40
2.0
  1
－０
 50
90.0
 41
1.0
 51
15.0
  7
KANJI15
  0
LINE
  8
0
  6
CONTINUOUS
 62
     1
 10
102.9
 20
69.7
 30
0.0
 11
114.8
 21
69.7
 31
0.0
  0
LINE
  8
0
  6
CONTINUOUS
 62
     1
 10
114.8
 20
47.2
 30
0.0
 11
103.1
 21
47.2
 31
0.0
  0
LINE
  8
0
  6
CONTINUOUS
 62
     1
 10
95.9
 20
96.0
 30
0.0
 11
95.38236191
 21
94.068148347
 31
0.0
  0
LINE
  8
0
  6
CONTINUOUS
 62
     1
 10
95.9
 20
96.0
 30
0.0
 11
96.41763809
 21
94.068148347
 31
0.0
  0
LINE
  8
0
  6
CONTINUOUS
 62
     1
 10
95.9
 20
96.0
 30
0.0
 11
95.9
 21
58.5
 31
0.0
  0
LINE
  8
0
  6
CONTINUOUS
 62
     1
 10
95.9
 20
58.5
 30
0.0
 11
96.41763809
 21
60.431851653
 31
0.0
  0
LINE
  8
0
  6
CONTINUOUS
 62
     1
 10
95.9
 20
58.5
 30
0.0
 11
95.38236191
 21
60.431851653
 31
0.0
  0
TEXT
  8
0
  6
CONTINUOUS
 62
     1
 10
94.7
 20
70.0
 30
0.3
 40
3.0
  1
６０
 50
90.0
 41
0.933333333
 51
15.0
  7
KANJI13
  0
TEXT
  8
0
  6
CONTINUOUS
 62
     1
 10
94.7
 20
77.0
 30
0.3
 40
3.0
  1
以上
 50
90.0
 41
0.933333333
 51
15.0
  7
KANJI13
  0
LINE
  8
0
  6
CONTINUOUS
 62
     1
 10
92.85
 20
96.0
 30
0.0
 11
97.9
 21
96.0
 31
0.0
  0
LINE
  8
0
  6
CONTINUOUS
 62
     1
 10
92.85
 20
58.5
 30
0.0
 11
99.8
 21
58.5
 31
0.0
  0
LINE
  8
0
  6
LTYPE1
 62
     2
 10
138.7
 20
69.7
 30
0.0
 11
138.7
 21
47.2
 31
0.0
  0
LINE
  8
0
  6
LTYPE1
 62
     2
 10
161.5
 20
47.2
 30
0.0
 11
161.5
 21
69.8
 31
0.0
  0
LINE
  8
0
  6
LTYPE5
 62
     1
 10
127.15
 20
126.23
 30
0.0
 11
127.15
 21
41.4
 31
0.0
  0
ENDSEC
  0
EOF
